ISO-10303-21;
HEADER;
FILE_DESCRIPTION((''),'1');
FILE_NAME('T:/00_BIG-HP\X2\FF71FF6FFF8CFF9F\X0\/2022_\X2\30C030A630F330ED30FC30C930C730FC30BF\X0\/02_STEP\X2\FF83FF9EFF70FF80\X0\/LINK\X2\7528FF83FF9EFF70FF80FF8EFF99FF80FF9E\X0\/CK\X2\FF8DFF6FFF84FF9E30FBFF71FF78FF7EFF7BFF98\X0\/11_CK\X2\8D85786CFF7DFF84FF9AFF70FF84FF7CFF6CFF9DFF78\X0\/01_CK\X2\8D85786CFF7DFF84FF9AFF70FF84FF7CFF6CFF9DFF78\X0\/\X2\5EA76A19\X0\_\X2\5C5E6027590966F4\X0\/ST31W-CKB3-350.stp','2022-09-28T06:19:22',(''),(''),'Spatial Interop R21 SP3','Kubotek KeyCreator 2011 V10.0.2 (22737)',' ');
FILE_SCHEMA(('automotive_design'));
ENDSEC;
DATA;
#1=MECHANICAL_DESIGN_GEOMETRIC_PRESENTATION_REPRESENTATION(' ',(#10,#11,#12,#13,#14,#15,#16,#17,#18,#19,#20,#21,#22,#23,#24),#6);
#2=PRODUCT_DEFINITION_CONTEXT('',#25,'design');
#3=APPLICATION_PROTOCOL_DEFINITION('INTERNATIONAL STANDARD','automotive_design',1994,#25);
#4=PRODUCT_CATEGORY_RELATIONSHIP('NONE','NONE',#26,#27);
#5=SHAPE_DEFINITION_REPRESENTATION(#28,#29);
#6= (GEOMETRIC_REPRESENTATION_CONTEXT(3)GLOBAL_UNCERTAINTY_ASSIGNED_CONTEXT((#32))GLOBAL_UNIT_ASSIGNED_CONTEXT((#34,#35,#36))REPRESENTATION_CONTEXT('NONE','WORKSPACE'));
#10=STYLED_ITEM('',(#38,#39),#40);
#11=STYLED_ITEM('',(#41,#42),#43);
#12=STYLED_ITEM('',(#44),#45);
#13=STYLED_ITEM('',(#46,#47),#48);
#14=STYLED_ITEM('',(#49,#50),#51);
#15=STYLED_ITEM('',(#52),#53);
#16=STYLED_ITEM('',(#54),#55);
#17=STYLED_ITEM('',(#56,#57),#58);
#18=STYLED_ITEM('',(#59),#60);
#19=STYLED_ITEM('',(#61,#62),#63);
#20=STYLED_ITEM('',(#64),#65);
#21=STYLED_ITEM('',(#66),#67);
#22=STYLED_ITEM('',(#68),#69);
#23=STYLED_ITEM('',(#70,#71),#72);
#24=STYLED_ITEM('',(#73,#74),#75);
#25=APPLICATION_CONTEXT(' ');
#26=PRODUCT_CATEGORY('part','NONE');
#27=PRODUCT_RELATED_PRODUCT_CATEGORY('detail',' ',(#76));
#28=PRODUCT_DEFINITION_SHAPE('NONE','NONE',#77);
#29=ADVANCED_BREP_SHAPE_REPRESENTATION('240[2]',(#43,#78),#6);
#32=UNCERTAINTY_MEASURE_WITH_UNIT(LENGTH_MEASURE(1.0E-006),#34,'','');
#34= (CONVERSION_BASED_UNIT('MILLIMETRE',#81)LENGTH_UNIT()NAMED_UNIT(#84));
#35= (NAMED_UNIT(#86)PLANE_ANGLE_UNIT()SI_UNIT($,.RADIAN.));
#36= (NAMED_UNIT(#86)SOLID_ANGLE_UNIT()SI_UNIT($,.STERADIAN.));
#38=PRESENTATION_STYLE_ASSIGNMENT((#92));
#39=PRESENTATION_STYLE_ASSIGNMENT((#93));
#40=ADVANCED_FACE('240[2]',(#94),#95,.F.);
#41=PRESENTATION_STYLE_ASSIGNMENT((#96));
#42=PRESENTATION_STYLE_ASSIGNMENT((#97));
#43=MANIFOLD_SOLID_BREP('240[2]',#98);
#44=PRESENTATION_STYLE_ASSIGNMENT((#99));
#45=EDGE_CURVE('240[2]',#100,#100,#101,.T.);
#46=PRESENTATION_STYLE_ASSIGNMENT((#102));
#47=PRESENTATION_STYLE_ASSIGNMENT((#103));
#48=ADVANCED_FACE('240[2]',(#104),#105,.T.);
#49=PRESENTATION_STYLE_ASSIGNMENT((#106));
#50=PRESENTATION_STYLE_ASSIGNMENT((#107));
#51=ADVANCED_FACE('240[2]',(#108,#109),#110,.F.);
#52=PRESENTATION_STYLE_ASSIGNMENT((#111));
#53=EDGE_CURVE('240[2]',#112,#112,#113,.T.);
#54=PRESENTATION_STYLE_ASSIGNMENT((#114));
#55=EDGE_CURVE('240[2]',#115,#115,#116,.T.);
#56=PRESENTATION_STYLE_ASSIGNMENT((#117));
#57=PRESENTATION_STYLE_ASSIGNMENT((#118));
#58=ADVANCED_FACE('240[2]',(#119),#120,.T.);
#59=PRESENTATION_STYLE_ASSIGNMENT((#121));
#60=EDGE_CURVE('240[2]',#122,#122,#123,.T.);
#61=PRESENTATION_STYLE_ASSIGNMENT((#124));
#62=PRESENTATION_STYLE_ASSIGNMENT((#125));
#63=ADVANCED_FACE('240[2]',(#126,#127),#128,.F.);
#64=PRESENTATION_STYLE_ASSIGNMENT((#129));
#65=EDGE_CURVE('240[2]',#130,#131,#132,.T.);
#66=PRESENTATION_STYLE_ASSIGNMENT((#133));
#67=EDGE_CURVE('240[2]',#131,#130,#134,.T.);
#68=PRESENTATION_STYLE_ASSIGNMENT((#135));
#69=EDGE_CURVE('240[2]',#136,#136,#137,.T.);
#70=PRESENTATION_STYLE_ASSIGNMENT((#138));
#71=PRESENTATION_STYLE_ASSIGNMENT((#139));
#72=ADVANCED_FACE('240[2]',(#140,#141),#142,.T.);
#73=PRESENTATION_STYLE_ASSIGNMENT((#143));
#74=PRESENTATION_STYLE_ASSIGNMENT((#144));
#75=ADVANCED_FACE('240[2]',(#145,#146,#147),#148,.T.);
#76=PRODUCT('240[2]','240[2]','PART-240[2]-DESC',(#149));
#77=PRODUCT_DEFINITION('NONE','NONE',#150,#2);
#78=AXIS2_PLACEMENT_3D('',#151,#152,#153);
#81=LENGTH_MEASURE_WITH_UNIT(LENGTH_MEASURE(1.0),#154);
#84=DIMENSIONAL_EXPONENTS(1.0,0.0,0.0,0.0,0.0,0.0,0.0);
#86=DIMENSIONAL_EXPONENTS(0.0,0.0,0.0,0.0,0.0,0.0,0.0);
#92=SURFACE_STYLE_USAGE(.BOTH.,#155);
#93=CURVE_STYLE('',#156,POSITIVE_LENGTH_MEASURE(1000.0),#157);
#94=FACE_OUTER_BOUND('',#158,.T.);
#95=PLANE('',#159);
#96=SURFACE_STYLE_USAGE(.BOTH.,#160);
#97=CURVE_STYLE('',#161,POSITIVE_LENGTH_MEASURE(1000.0),#162);
#98=CLOSED_SHELL('',(#51,#58,#63,#40,#72,#75,#48));
#99=CURVE_STYLE('',#163,POSITIVE_LENGTH_MEASURE(1000.0),#164);
#100=VERTEX_POINT('',#165);
#101=CIRCLE('',#166,9.0);
#102=SURFACE_STYLE_USAGE(.BOTH.,#167);
#103=CURVE_STYLE('',#168,POSITIVE_LENGTH_MEASURE(1000.0),#169);
#104=FACE_OUTER_BOUND('',#170,.T.);
#105=PLANE('',#171);
#106=SURFACE_STYLE_USAGE(.BOTH.,#172);
#107=CURVE_STYLE('',#173,POSITIVE_LENGTH_MEASURE(1000.0),#174);
#108=FACE_BOUND('',#175,.T.);
#109=FACE_BOUND('',#176,.T.);
#110=CYLINDRICAL_SURFACE('',#177,3.1);
#111=CURVE_STYLE('',#178,POSITIVE_LENGTH_MEASURE(1000.0),#179);
#112=VERTEX_POINT('',#180);
#113=CIRCLE('',#181,9.0);
#114=CURVE_STYLE('',#182,POSITIVE_LENGTH_MEASURE(1000.0),#183);
#115=VERTEX_POINT('',#184);
#116=CIRCLE('',#185,15.5);
#117=SURFACE_STYLE_USAGE(.BOTH.,#186);
#118=CURVE_STYLE('',#187,POSITIVE_LENGTH_MEASURE(1000.0),#188);
#119=FACE_OUTER_BOUND('',#189,.T.);
#120=PLANE('',#190);
#121=CURVE_STYLE('',#191,POSITIVE_LENGTH_MEASURE(1000.0),#192);
#122=VERTEX_POINT('',#193);
#123=CIRCLE('',#194,15.5);
#124=SURFACE_STYLE_USAGE(.BOTH.,#195);
#125=CURVE_STYLE('',#196,POSITIVE_LENGTH_MEASURE(1000.0),#197);
#126=FACE_BOUND('',#198,.T.);
#127=FACE_BOUND('',#199,.T.);
#128=CYLINDRICAL_SURFACE('',#200,9.0);
#129=CURVE_STYLE('',#201,POSITIVE_LENGTH_MEASURE(1000.0),#202);
#130=VERTEX_POINT('',#203);
#131=VERTEX_POINT('',#204);
#132=B_SPLINE_CURVE_WITH_KNOTS('',3,(#205,#206,#207,#208,#209,#210,#211,#212,#213,#214,#215,#216,#217,#218,#219,#220,#221,#222,#223,#224,#225,#226,#227,#228,#229,#230,#231,#232,#233,#234,#235,#236,#237,#238,#239,#240,#241,#242,#243,#244,#245,#246,#247,#248,#249,#250,#251,#252,#253,#254,#255,#256,#257,#258,#259,#260,#261,#262,#263,#264,#265,#266,#267,#268,#269,#270),.UNSPECIFIED.,.T.,.F.,(4,2,2,2,2,2,2,2,2,2,2,2,2,2,2,2,2,2,2,2,2,2,2,2,2,2,2,2,2,2,2,2,4),(0.0,0.585582646629802,1.1711652932596,1.75674793988941,2.34233058651921,2.92788042022872,3.51343025393822,4.09898008764773,4.68452992135724,5.27007975506674,5.85562958877625,6.44117942248575,7.02672925619526,7.61231190282506,8.19789454945487,8.78347719608467,9.36905984271447,9.95464248934427,10.5402251359741,11.1258077826039,11.7113904292337,12.2969402629432,12.8824900966527,13.4680399303622,14.0535897640717,14.6391395977812,15.2246894314907,15.8102392652002,16.3957890989097,16.9813717455395,17.5669543921693,18.1525370387991,18.7381196854289),.UNSPECIFIED.);
#133=CURVE_STYLE('',#271,POSITIVE_LENGTH_MEASURE(1000.0),#272);
#134=B_SPLINE_CURVE_WITH_KNOTS('',3,(#273,#274,#275,#276,#277,#278,#279,#280,#281,#282,#283,#284,#285,#286,#287,#288,#289,#290,#291,#292,#293,#294,#295,#296,#297,#298,#299,#300,#301,#302,#303,#304,#305,#306,#307,#308,#309,#310,#311,#312,#313,#314,#315,#316,#317,#318,#319,#320,#321,#322,#323,#324,#325,#326,#327,#328,#329,#330,#331,#332,#333,#334,#335,#336,#337,#338),.UNSPECIFIED.,.T.,.F.,(4,2,2,2,2,2,2,2,2,2,2,2,2,2,2,2,2,2,2,2,2,2,2,2,2,2,2,2,2,2,2,2,4),(0.0,0.585582646629802,1.1711652932596,1.75674793988941,2.34233058651921,2.92788042022872,3.51343025393822,4.09898008764773,4.68452992135724,5.27007975506674,5.85562958877625,6.44117942248575,7.02672925619526,7.61231190282506,8.19789454945487,8.78347719608467,9.36905984271447,9.95464248934427,10.5402251359741,11.1258077826039,11.7113904292337,12.2969402629432,12.8824900966527,13.4680399303622,14.0535897640717,14.6391395977812,15.2246894314907,15.8102392652002,16.3957890989097,16.9813717455395,17.5669543921693,18.1525370387991,18.7381196854289),.UNSPECIFIED.);
#135=CURVE_STYLE('',#339,POSITIVE_LENGTH_MEASURE(1000.0),#340);
#136=VERTEX_POINT('',#341);
#137=CIRCLE('',#342,3.1);
#138=SURFACE_STYLE_USAGE(.BOTH.,#343);
#139=CURVE_STYLE('',#344,POSITIVE_LENGTH_MEASURE(1000.0),#345);
#140=FACE_BOUND('',#346,.T.);
#141=FACE_OUTER_BOUND('',#347,.T.);
#142=PLANE('',#348);
#143=SURFACE_STYLE_USAGE(.BOTH.,#349);
#144=CURVE_STYLE('',#350,POSITIVE_LENGTH_MEASURE(1000.0),#351);
#145=FACE_BOUND('',#352,.T.);
#146=FACE_BOUND('',#353,.T.);
#147=FACE_BOUND('',#354,.T.);
#148=CYLINDRICAL_SURFACE('',#355,15.5);
#149=PRODUCT_CONTEXT('',#25,'mechanical');
#150=PRODUCT_DEFINITION_FORMATION_WITH_SPECIFIED_SOURCE(' ','NONE',#76,.NOT_KNOWN.);
#151=CARTESIAN_POINT('',(0.0,0.0,0.0));
#152=DIRECTION('',(0.0,0.0,1.0));
#153=DIRECTION('',(1.0,0.0,0.0));
#154= (NAMED_UNIT(#84)LENGTH_UNIT()SI_UNIT(.MILLI.,.METRE.));
#155=SURFACE_SIDE_STYLE('',(#357));
#156=DRAUGHTING_PRE_DEFINED_CURVE_FONT('continuous');
#157=COLOUR_RGB('',0.501960813999176,0.501960813999176,0.501960813999176);
#158=EDGE_LOOP('',(#358));
#159=AXIS2_PLACEMENT_3D('',#359,#360,#361);
#160=SURFACE_SIDE_STYLE('',(#362));
#161=DRAUGHTING_PRE_DEFINED_CURVE_FONT('continuous');
#162=COLOUR_RGB('',0.501960813999176,0.501960813999176,0.501960813999176);
#163=DRAUGHTING_PRE_DEFINED_CURVE_FONT('continuous');
#164=COLOUR_RGB('',0.501960813999176,0.501960813999176,0.501960813999176);
#165=CARTESIAN_POINT('',(9.0,0.0,0.0));
#166=AXIS2_PLACEMENT_3D('',#363,#364,#365);
#167=SURFACE_SIDE_STYLE('',(#366));
#168=DRAUGHTING_PRE_DEFINED_CURVE_FONT('continuous');
#169=COLOUR_RGB('',0.501960813999176,0.501960813999176,0.501960813999176);
#170=EDGE_LOOP('',(#367));
#171=AXIS2_PLACEMENT_3D('',#368,#369,#370);
#172=SURFACE_SIDE_STYLE('',(#371));
#173=DRAUGHTING_PRE_DEFINED_CURVE_FONT('continuous');
#174=COLOUR_RGB('',0.501960813999176,0.501960813999176,0.501960813999176);
#175=EDGE_LOOP('',(#372,#373));
#176=EDGE_LOOP('',(#374));
#177=AXIS2_PLACEMENT_3D('',#375,#376,#377);
#178=DRAUGHTING_PRE_DEFINED_CURVE_FONT('continuous');
#179=COLOUR_RGB('',0.501960813999176,0.501960813999176,0.501960813999176);
#180=CARTESIAN_POINT('',(9.0,0.0,22.0));
#181=AXIS2_PLACEMENT_3D('',#378,#379,#380);
#182=DRAUGHTING_PRE_DEFINED_CURVE_FONT('continuous');
#183=COLOUR_RGB('',0.501960813999176,0.501960813999176,0.501960813999176);
#184=CARTESIAN_POINT('',(-2.14313189850787E-014,15.5,350.0));
#185=AXIS2_PLACEMENT_3D('',#381,#382,#383);
#186=SURFACE_SIDE_STYLE('',(#384));
#187=DRAUGHTING_PRE_DEFINED_CURVE_FONT('continuous');
#188=COLOUR_RGB('',0.501960813999176,0.501960813999176,0.501960813999176);
#189=EDGE_LOOP('',(#385));
#190=AXIS2_PLACEMENT_3D('',#386,#387,#388);
#191=DRAUGHTING_PRE_DEFINED_CURVE_FONT('continuous');
#192=COLOUR_RGB('',0.501960813999176,0.501960813999176,0.501960813999176);
#193=CARTESIAN_POINT('',(-1.91052250483214E-031,15.5,1.8982025386784E-015));
#194=AXIS2_PLACEMENT_3D('',#389,#390,#391);
#195=SURFACE_SIDE_STYLE('',(#392));
#196=DRAUGHTING_PRE_DEFINED_CURVE_FONT('continuous');
#197=COLOUR_RGB('',0.501960813999176,0.501960813999176,0.501960813999176);
#198=EDGE_LOOP('',(#393));
#199=EDGE_LOOP('',(#394));
#200=AXIS2_PLACEMENT_3D('',#395,#396,#397);
#201=DRAUGHTING_PRE_DEFINED_CURVE_FONT('continuous');
#202=COLOUR_RGB('',0.501960813999176,0.501960813999176,0.501960813999176);
#203=CARTESIAN_POINT('',(-2.95752201994086E-015,15.5,4.8999999999992));
#204=CARTESIAN_POINT('',(-2.1982410044695E-015,15.5,11.0999999999992));
#205=CARTESIAN_POINT('',(3.1,15.1868364052557,7.9999999999992));
#206=CARTESIAN_POINT('',(3.1,15.1868364052557,8.19519421554247));
#207=CARTESIAN_POINT('',(3.08126696905541,15.1907012625467,8.3968814827692));
#208=CARTESIAN_POINT('',(3.0025539397166,15.2064552352244,8.79774111453287));
#209=CARTESIAN_POINT('',(2.94259269995552,15.2183323000229,8.99691763579889));
#210=CARTESIAN_POINT('',(2.78424876312516,15.2480965497249,9.37864268899455));
#211=CARTESIAN_POINT('',(2.68574015614673,15.2659784517932,9.56150531588854));
#212=CARTESIAN_POINT('',(2.45830130164731,15.3042495074566,9.89954040476946));
#213=CARTESIAN_POINT('',(2.32935531923688,15.324599394954,10.0547067241189));
#214=CARTESIAN_POINT('',(2.05471441903904,15.363833809268,10.3293476243168));
#215=CARTESIAN_POINT('',(1.89955167038187,15.3841032027857,10.4582927541716));
#216=CARTESIAN_POINT('',(1.56151431957605,15.4220816017817,10.6857350658484));
#217=CARTESIAN_POINT('',(1.37864586449792,15.4397532832957,10.7842476143235));
#218=CARTESIAN_POINT('',(0.996909454068491,15.4690923264716,10.9425959253947));
#219=CARTESIAN_POINT('',(0.797727571773184,15.480757825878,11.0025575747224));
#220=CARTESIAN_POINT('',(0.396866504697316,15.4962166066334,11.0812689343459));
#221=CARTESIAN_POINT('',(0.195183277903166,15.5,11.0999999999992));
#222=CARTESIAN_POINT('',(-0.195183277903172,15.5,11.0999999999992));
#223=CARTESIAN_POINT('',(-0.396866504697324,15.4962166066334,11.0812689343459));
#224=CARTESIAN_POINT('',(-0.797727571773192,15.480757825878,11.0025575747224));
#225=CARTESIAN_POINT('',(-0.996909454068496,15.4690923264716,10.9425959253947));
#226=CARTESIAN_POINT('',(-1.37864586449792,15.4397532832957,10.7842476143235));
#227=CARTESIAN_POINT('',(-1.56151431957606,15.4220816017817,10.6857350658484));
#228=CARTESIAN_POINT('',(-1.89955167038188,15.3841032027857,10.4582927541716));
#229=CARTESIAN_POINT('',(-2.05471441903905,15.363833809268,10.3293476243168));
#230=CARTESIAN_POINT('',(-2.32935531923689,15.324599394954,10.0547067241189));
#231=CARTESIAN_POINT('',(-2.45830130164731,15.3042495074566,9.89954040476946));
#232=CARTESIAN_POINT('',(-2.68574015614674,15.2659784517932,9.56150531588854));
#233=CARTESIAN_POINT('',(-2.78424876312516,15.2480965497249,9.37864268899455));
#234=CARTESIAN_POINT('',(-2.94259269995552,15.2183323000229,8.99691763579889));
#235=CARTESIAN_POINT('',(-3.0025539397166,15.2064552352244,8.79774111453287));
#236=CARTESIAN_POINT('',(-3.08126696905541,15.1907012625467,8.3968814827692));
#237=CARTESIAN_POINT('',(-3.1,15.1868364052557,8.19519421554247));
#238=CARTESIAN_POINT('',(-3.1,15.1868364052557,7.80480578445594));
#239=CARTESIAN_POINT('',(-3.08126696905541,15.1907012625467,7.60311851722921));
#240=CARTESIAN_POINT('',(-3.0025539397166,15.2064552352244,7.20225888546554));
#241=CARTESIAN_POINT('',(-2.94259269995553,15.2183323000229,7.00308236419951));
#242=CARTESIAN_POINT('',(-2.78424876312517,15.2480965497249,6.62135731100386));
#243=CARTESIAN_POINT('',(-2.68574015614674,15.2659784517932,6.43849468410987));
#244=CARTESIAN_POINT('',(-2.45830130164731,15.3042495074566,6.10045959522895));
#245=CARTESIAN_POINT('',(-2.32935531923689,15.324599394954,5.94529327587949));
#246=CARTESIAN_POINT('',(-2.05471441903905,15.363833809268,5.67065237568165));
#247=CARTESIAN_POINT('',(-1.89955167038188,15.3841032027857,5.54170724582682));
#248=CARTESIAN_POINT('',(-1.56151431957607,15.4220816017817,5.31426493414996));
#249=CARTESIAN_POINT('',(-1.37864586449793,15.4397532832957,5.21575238567487));
#250=CARTESIAN_POINT('',(-0.996909454068501,15.4690923264716,5.0574040746037));
#251=CARTESIAN_POINT('',(-0.797727571773195,15.480757825878,4.99744242527601));
#252=CARTESIAN_POINT('',(-0.396866504697325,15.4962166066334,4.9187310656525));
#253=CARTESIAN_POINT('',(-0.195183277903172,15.5,4.89999999999921));
#254=CARTESIAN_POINT('',(0.195183277903166,15.5,4.89999999999921));
#255=CARTESIAN_POINT('',(0.396866504697319,15.4962166066334,4.9187310656525));
#256=CARTESIAN_POINT('',(0.797727571773189,15.480757825878,4.99744242527601));
#257=CARTESIAN_POINT('',(0.996909454068495,15.4690923264716,5.0574040746037));
#258=CARTESIAN_POINT('',(1.37864586449792,15.4397532832957,5.21575238567487));
#259=CARTESIAN_POINT('',(1.56151431957606,15.4220816017817,5.31426493414996));
#260=CARTESIAN_POINT('',(1.89955167038188,15.3841032027857,5.54170724582682));
#261=CARTESIAN_POINT('',(2.05471441903904,15.363833809268,5.67065237568165));
#262=CARTESIAN_POINT('',(2.32935531923689,15.324599394954,5.94529327587949));
#263=CARTESIAN_POINT('',(2.45830130164731,15.3042495074566,6.10045959522895));
#264=CARTESIAN_POINT('',(2.68574015614674,15.2659784517932,6.43849468410987));
#265=CARTESIAN_POINT('',(2.78424876312516,15.2480965497249,6.62135731100386));
#266=CARTESIAN_POINT('',(2.94259269995552,15.2183323000229,7.00308236419951));
#267=CARTESIAN_POINT('',(3.0025539397166,15.2064552352244,7.20225888546554));
#268=CARTESIAN_POINT('',(3.08126696905541,15.1907012625467,7.60311851722921));
#269=CARTESIAN_POINT('',(3.1,15.1868364052557,7.80480578445594));
#270=CARTESIAN_POINT('',(3.1,15.1868364052557,7.9999999999992));
#271=DRAUGHTING_PRE_DEFINED_CURVE_FONT('continuous');
#272=COLOUR_RGB('',0.501960813999176,0.501960813999176,0.501960813999176);
#273=CARTESIAN_POINT('',(3.1,15.1868364052557,7.9999999999992));
#274=CARTESIAN_POINT('',(3.1,15.1868364052557,8.19519421554247));
#275=CARTESIAN_POINT('',(3.08126696905541,15.1907012625467,8.3968814827692));
#276=CARTESIAN_POINT('',(3.0025539397166,15.2064552352244,8.79774111453287));
#277=CARTESIAN_POINT('',(2.94259269995552,15.2183323000229,8.99691763579889));
#278=CARTESIAN_POINT('',(2.78424876312516,15.2480965497249,9.37864268899455));
#279=CARTESIAN_POINT('',(2.68574015614673,15.2659784517932,9.56150531588854));
#280=CARTESIAN_POINT('',(2.45830130164731,15.3042495074566,9.89954040476946));
#281=CARTESIAN_POINT('',(2.32935531923688,15.324599394954,10.0547067241189));
#282=CARTESIAN_POINT('',(2.05471441903904,15.363833809268,10.3293476243168));
#283=CARTESIAN_POINT('',(1.89955167038187,15.3841032027857,10.4582927541716));
#284=CARTESIAN_POINT('',(1.56151431957605,15.4220816017817,10.6857350658484));
#285=CARTESIAN_POINT('',(1.37864586449792,15.4397532832957,10.7842476143235));
#286=CARTESIAN_POINT('',(0.996909454068491,15.4690923264716,10.9425959253947));
#287=CARTESIAN_POINT('',(0.797727571773184,15.480757825878,11.0025575747224));
#288=CARTESIAN_POINT('',(0.396866504697316,15.4962166066334,11.0812689343459));
#289=CARTESIAN_POINT('',(0.195183277903166,15.5,11.0999999999992));
#290=CARTESIAN_POINT('',(-0.195183277903172,15.5,11.0999999999992));
#291=CARTESIAN_POINT('',(-0.396866504697324,15.4962166066334,11.0812689343459));
#292=CARTESIAN_POINT('',(-0.797727571773192,15.480757825878,11.0025575747224));
#293=CARTESIAN_POINT('',(-0.996909454068496,15.4690923264716,10.9425959253947));
#294=CARTESIAN_POINT('',(-1.37864586449792,15.4397532832957,10.7842476143235));
#295=CARTESIAN_POINT('',(-1.56151431957606,15.4220816017817,10.6857350658484));
#296=CARTESIAN_POINT('',(-1.89955167038188,15.3841032027857,10.4582927541716));
#297=CARTESIAN_POINT('',(-2.05471441903905,15.363833809268,10.3293476243168));
#298=CARTESIAN_POINT('',(-2.32935531923689,15.324599394954,10.0547067241189));
#299=CARTESIAN_POINT('',(-2.45830130164731,15.3042495074566,9.89954040476946));
#300=CARTESIAN_POINT('',(-2.68574015614674,15.2659784517932,9.56150531588854));
#301=CARTESIAN_POINT('',(-2.78424876312516,15.2480965497249,9.37864268899455));
#302=CARTESIAN_POINT('',(-2.94259269995552,15.2183323000229,8.99691763579889));
#303=CARTESIAN_POINT('',(-3.0025539397166,15.2064552352244,8.79774111453287));
#304=CARTESIAN_POINT('',(-3.08126696905541,15.1907012625467,8.3968814827692));
#305=CARTESIAN_POINT('',(-3.1,15.1868364052557,8.19519421554247));
#306=CARTESIAN_POINT('',(-3.1,15.1868364052557,7.80480578445594));
#307=CARTESIAN_POINT('',(-3.08126696905541,15.1907012625467,7.60311851722921));
#308=CARTESIAN_POINT('',(-3.0025539397166,15.2064552352244,7.20225888546554));
#309=CARTESIAN_POINT('',(-2.94259269995553,15.2183323000229,7.00308236419951));
#310=CARTESIAN_POINT('',(-2.78424876312517,15.2480965497249,6.62135731100386));
#311=CARTESIAN_POINT('',(-2.68574015614674,15.2659784517932,6.43849468410987));
#312=CARTESIAN_POINT('',(-2.45830130164731,15.3042495074566,6.10045959522895));
#313=CARTESIAN_POINT('',(-2.32935531923689,15.324599394954,5.94529327587949));
#314=CARTESIAN_POINT('',(-2.05471441903905,15.363833809268,5.67065237568165));
#315=CARTESIAN_POINT('',(-1.89955167038188,15.3841032027857,5.54170724582682));
#316=CARTESIAN_POINT('',(-1.56151431957607,15.4220816017817,5.31426493414996));
#317=CARTESIAN_POINT('',(-1.37864586449793,15.4397532832957,5.21575238567487));
#318=CARTESIAN_POINT('',(-0.996909454068501,15.4690923264716,5.0574040746037));
#319=CARTESIAN_POINT('',(-0.797727571773195,15.480757825878,4.99744242527601));
#320=CARTESIAN_POINT('',(-0.396866504697325,15.4962166066334,4.9187310656525));
#321=CARTESIAN_POINT('',(-0.195183277903172,15.5,4.89999999999921));
#322=CARTESIAN_POINT('',(0.195183277903166,15.5,4.89999999999921));
#323=CARTESIAN_POINT('',(0.396866504697319,15.4962166066334,4.9187310656525));
#324=CARTESIAN_POINT('',(0.797727571773189,15.480757825878,4.99744242527601));
#325=CARTESIAN_POINT('',(0.996909454068495,15.4690923264716,5.0574040746037));
#326=CARTESIAN_POINT('',(1.37864586449792,15.4397532832957,5.21575238567487));
#327=CARTESIAN_POINT('',(1.56151431957606,15.4220816017817,5.31426493414996));
#328=CARTESIAN_POINT('',(1.89955167038188,15.3841032027857,5.54170724582682));
#329=CARTESIAN_POINT('',(2.05471441903904,15.363833809268,5.67065237568165));
#330=CARTESIAN_POINT('',(2.32935531923689,15.324599394954,5.94529327587949));
#331=CARTESIAN_POINT('',(2.45830130164731,15.3042495074566,6.10045959522895));
#332=CARTESIAN_POINT('',(2.68574015614674,15.2659784517932,6.43849468410987));
#333=CARTESIAN_POINT('',(2.78424876312516,15.2480965497249,6.62135731100386));
#334=CARTESIAN_POINT('',(2.94259269995552,15.2183323000229,7.00308236419951));
#335=CARTESIAN_POINT('',(3.0025539397166,15.2064552352244,7.20225888546554));
#336=CARTESIAN_POINT('',(3.08126696905541,15.1907012625467,7.60311851722921));
#337=CARTESIAN_POINT('',(3.1,15.1868364052557,7.80480578445594));
#338=CARTESIAN_POINT('',(3.1,15.1868364052557,7.9999999999992));
#339=DRAUGHTING_PRE_DEFINED_CURVE_FONT('continuous');
#340=COLOUR_RGB('',0.501960813999176,0.501960813999176,0.501960813999176);
#341=CARTESIAN_POINT('',(3.1,15.0,7.9999999999992));
#342=AXIS2_PLACEMENT_3D('',#398,#399,#400);
#343=SURFACE_SIDE_STYLE('',(#401));
#344=DRAUGHTING_PRE_DEFINED_CURVE_FONT('continuous');
#345=COLOUR_RGB('',0.501960813999176,0.501960813999176,0.501960813999176);
#346=EDGE_LOOP('',(#402));
#347=EDGE_LOOP('',(#403));
#348=AXIS2_PLACEMENT_3D('',#404,#405,#406);
#349=SURFACE_SIDE_STYLE('',(#407));
#350=DRAUGHTING_PRE_DEFINED_CURVE_FONT('continuous');
#351=COLOUR_RGB('',0.501960813999176,0.501960813999176,0.501960813999176);
#352=EDGE_LOOP('',(#408,#409));
#353=EDGE_LOOP('',(#410));
#354=EDGE_LOOP('',(#411));
#355=AXIS2_PLACEMENT_3D('',#412,#413,#414);
#357=SURFACE_STYLE_FILL_AREA(#415);
#358=ORIENTED_EDGE('',*,*,#53,.T.);
#359=CARTESIAN_POINT('',(1.59430065779055,8.85766365429217,22.0));
#360=DIRECTION('',(0.0,0.0,1.0));
#361=DIRECTION('',(1.0,0.0,0.0));
#362=SURFACE_STYLE_FILL_AREA(#416);
#363=CARTESIAN_POINT('',(0.0,0.0,9.49101269339199E-016));
#364=DIRECTION('',(-6.12323399573677E-017,-1.22464679914735E-016,1.0));
#365=DIRECTION('',(1.0,-7.49879891330927E-033,6.12323399573677E-017));
#366=SURFACE_STYLE_FILL_AREA(#417);
#367=ORIENTED_EDGE('',*,*,#55,.T.);
#368=CARTESIAN_POINT('',(-2.14313189850787E-014,7.74999999999996,350.0));
#369=DIRECTION('',(-9.18338008663382E-049,-1.22464679914735E-016,1.0));
#370=DIRECTION('',(1.0,-7.49879891330927E-033,0.0));
#371=SURFACE_STYLE_FILL_AREA(#418);
#372=ORIENTED_EDGE('',*,*,#67,.F.);
#373=ORIENTED_EDGE('',*,*,#65,.F.);
#374=ORIENTED_EDGE('',*,*,#69,.F.);
#375=CARTESIAN_POINT('',(-2.38806125833734E-015,15.5,7.9999999999992));
#376=DIRECTION('',(-0.0,1.0,0.0));
#377=DIRECTION('',(1.0,0.0,0.0));
#378=CARTESIAN_POINT('',(0.0,0.0,22.0));
#379=DIRECTION('',(0.0,0.0,-1.0));
#380=DIRECTION('',(1.0,0.0,0.0));
#381=CARTESIAN_POINT('',(-2.14313189850787E-014,-4.28626379701573E-014,350.0));
#382=DIRECTION('',(-6.12323399573677E-017,-1.22464679914735E-016,1.0));
#383=DIRECTION('',(-1.23259516440783E-032,1.0,1.22464679914735E-016));
#384=SURFACE_STYLE_FILL_AREA(#419);
#385=ORIENTED_EDGE('',*,*,#69,.T.);
#386=CARTESIAN_POINT('',(0.549148004350074,15.0,4.9490269635208));
#387=DIRECTION('',(-0.0,1.0,0.0));
#388=DIRECTION('',(1.0,0.0,0.0));
#389=CARTESIAN_POINT('',(0.0,0.0,0.0));
#390=DIRECTION('',(-6.12323399573676E-017,-1.22464679914735E-016,1.0));
#391=DIRECTION('',(-1.23259516440783E-032,1.0,1.22464679914735E-016));
#392=SURFACE_STYLE_FILL_AREA(#420);
#393=ORIENTED_EDGE('',*,*,#53,.F.);
#394=ORIENTED_EDGE('',*,*,#45,.F.);
#395=CARTESIAN_POINT('',(0.0,0.0,0.0));
#396=DIRECTION('',(0.0,0.0,-1.0));
#397=DIRECTION('',(1.0,0.0,0.0));
#398=CARTESIAN_POINT('',(-2.38806125833734E-015,15.0,7.9999999999992));
#399=DIRECTION('',(-0.0,1.0,0.0));
#400=DIRECTION('',(1.0,0.0,0.0));
#401=SURFACE_STYLE_FILL_AREA(#421);
#402=ORIENTED_EDGE('',*,*,#45,.T.);
#403=ORIENTED_EDGE('',*,*,#60,.F.);
#404=CARTESIAN_POINT('',(-9.55261252416069E-032,7.75,9.49101269339199E-016));
#405=DIRECTION('',(6.12323399573677E-017,1.22464679914735E-016,-1.0));
#406=DIRECTION('',(-1.0,0.0,-6.12323399573677E-017));
#407=SURFACE_STYLE_FILL_AREA(#422);
#408=ORIENTED_EDGE('',*,*,#67,.T.);
#409=ORIENTED_EDGE('',*,*,#65,.T.);
#410=ORIENTED_EDGE('',*,*,#55,.F.);
#411=ORIENTED_EDGE('',*,*,#60,.T.);
#412=CARTESIAN_POINT('',(-1.07156594925393E-014,-2.14313189850787E-014,175.0));
#413=DIRECTION('',(6.12323399573677E-017,1.22464679914735E-016,-1.0));
#414=DIRECTION('',(-1.23259516440783E-032,1.0,1.22464679914735E-016));
#415=FILL_AREA_STYLE('',(#423));
#416=FILL_AREA_STYLE('',(#424));
#417=FILL_AREA_STYLE('',(#425));
#418=FILL_AREA_STYLE('',(#426));
#419=FILL_AREA_STYLE('',(#427));
#420=FILL_AREA_STYLE('',(#428));
#421=FILL_AREA_STYLE('',(#429));
#422=FILL_AREA_STYLE('',(#430));
#423=FILL_AREA_STYLE_COLOUR('',#431);
#424=FILL_AREA_STYLE_COLOUR('',#432);
#425=FILL_AREA_STYLE_COLOUR('',#433);
#426=FILL_AREA_STYLE_COLOUR('',#434);
#427=FILL_AREA_STYLE_COLOUR('',#435);
#428=FILL_AREA_STYLE_COLOUR('',#436);
#429=FILL_AREA_STYLE_COLOUR('',#437);
#430=FILL_AREA_STYLE_COLOUR('',#438);
#431=COLOUR_RGB('',0.501960813999176,0.501960813999176,0.501960813999176);
#432=COLOUR_RGB('',0.501960813999176,0.501960813999176,0.501960813999176);
#433=COLOUR_RGB('',0.501960813999176,0.501960813999176,0.501960813999176);
#434=COLOUR_RGB('',0.501960813999176,0.501960813999176,0.501960813999176);
#435=COLOUR_RGB('',0.501960813999176,0.501960813999176,0.501960813999176);
#436=COLOUR_RGB('',0.501960813999176,0.501960813999176,0.501960813999176);
#437=COLOUR_RGB('',0.501960813999176,0.501960813999176,0.501960813999176);
#438=COLOUR_RGB('',0.501960813999176,0.501960813999176,0.501960813999176);
ENDSEC;
END-ISO-10303-21;
