ISO-10303-21;
HEADER;
FILE_DESCRIPTION((''),'1');
FILE_NAME('T:/00_BIG-HP\X2\FF71FF6FFF8CFF9F\X0\/2022_\X2\30C030A630F330ED30FC30C930C730FC30BF\X0\/02_STEP\X2\FF83FF9EFF70FF80\X0\/LINK\X2\7528FF83FF9EFF70FF80FF8EFF99FF80FF9E\X0\/CK\X2\FF8DFF6FFF84FF9E30FBFF71FF78FF7EFF7BFF98\X0\/11_CK\X2\8D85786CFF7DFF84FF9AFF70FF84FF7CFF6CFF9DFF78\X0\/01_CK\X2\8D85786CFF7DFF84FF9AFF70FF84FF7CFF6CFF9DFF78\X0\/\X2\5EA76A19\X0\_\X2\5C5E6027590966F4\X0\/ST31W-CKB3-280.stp','2022-09-28T06:18:01',(''),(''),'Spatial Interop R21 SP3','Kubotek KeyCreator 2011 V10.0.2 (22737)',' ');
FILE_SCHEMA(('automotive_design'));
ENDSEC;
DATA;
#1=MECHANICAL_DESIGN_GEOMETRIC_PRESENTATION_REPRESENTATION(' ',(#10,#11,#12,#13,#14,#15,#16,#17,#18,#19,#20,#21,#22,#23,#24),#6);
#2=PRODUCT_DEFINITION_CONTEXT('',#25,'design');
#3=APPLICATION_PROTOCOL_DEFINITION('INTERNATIONAL STANDARD','automotive_design',1994,#25);
#4=PRODUCT_CATEGORY_RELATIONSHIP('NONE','NONE',#26,#27);
#5=SHAPE_DEFINITION_REPRESENTATION(#28,#29);
#6= (GEOMETRIC_REPRESENTATION_CONTEXT(3)GLOBAL_UNCERTAINTY_ASSIGNED_CONTEXT((#32))GLOBAL_UNIT_ASSIGNED_CONTEXT((#34,#35,#36))REPRESENTATION_CONTEXT('NONE','WORKSPACE'));
#10=STYLED_ITEM('',(#38),#39);
#11=STYLED_ITEM('',(#40),#41);
#12=STYLED_ITEM('',(#42),#43);
#13=STYLED_ITEM('',(#44),#45);
#14=STYLED_ITEM('',(#46),#47);
#15=STYLED_ITEM('',(#48,#49),#50);
#16=STYLED_ITEM('',(#51,#52),#53);
#17=STYLED_ITEM('',(#54,#55),#56);
#18=STYLED_ITEM('',(#57,#58),#59);
#19=STYLED_ITEM('',(#60),#61);
#20=STYLED_ITEM('',(#62,#63),#64);
#21=STYLED_ITEM('',(#65,#66),#67);
#22=STYLED_ITEM('',(#68),#69);
#23=STYLED_ITEM('',(#70,#71),#72);
#24=STYLED_ITEM('',(#73,#74),#75);
#25=APPLICATION_CONTEXT(' ');
#26=PRODUCT_CATEGORY('part','NONE');
#27=PRODUCT_RELATED_PRODUCT_CATEGORY('detail',' ',(#76));
#28=PRODUCT_DEFINITION_SHAPE('NONE','NONE',#77);
#29=ADVANCED_BREP_SHAPE_REPRESENTATION('240[2]',(#50,#78),#6);
#32=UNCERTAINTY_MEASURE_WITH_UNIT(LENGTH_MEASURE(1.0E-006),#34,'','');
#34= (CONVERSION_BASED_UNIT('MILLIMETRE',#81)LENGTH_UNIT()NAMED_UNIT(#84));
#35= (NAMED_UNIT(#86)PLANE_ANGLE_UNIT()SI_UNIT($,.RADIAN.));
#36= (NAMED_UNIT(#86)SOLID_ANGLE_UNIT()SI_UNIT($,.STERADIAN.));
#38=PRESENTATION_STYLE_ASSIGNMENT((#92));
#39=EDGE_CURVE('240[2]',#93,#93,#94,.T.);
#40=PRESENTATION_STYLE_ASSIGNMENT((#95));
#41=EDGE_CURVE('240[2]',#96,#96,#97,.T.);
#42=PRESENTATION_STYLE_ASSIGNMENT((#98));
#43=EDGE_CURVE('240[2]',#99,#99,#100,.T.);
#44=PRESENTATION_STYLE_ASSIGNMENT((#101));
#45=EDGE_CURVE('240[2]',#102,#103,#104,.T.);
#46=PRESENTATION_STYLE_ASSIGNMENT((#105));
#47=EDGE_CURVE('240[2]',#106,#106,#107,.T.);
#48=PRESENTATION_STYLE_ASSIGNMENT((#108));
#49=PRESENTATION_STYLE_ASSIGNMENT((#109));
#50=MANIFOLD_SOLID_BREP('240[2]',#110);
#51=PRESENTATION_STYLE_ASSIGNMENT((#111));
#52=PRESENTATION_STYLE_ASSIGNMENT((#112));
#53=ADVANCED_FACE('240[2]',(#113,#114),#115,.F.);
#54=PRESENTATION_STYLE_ASSIGNMENT((#116));
#55=PRESENTATION_STYLE_ASSIGNMENT((#117));
#56=ADVANCED_FACE('240[2]',(#118,#119),#120,.T.);
#57=PRESENTATION_STYLE_ASSIGNMENT((#121));
#58=PRESENTATION_STYLE_ASSIGNMENT((#122));
#59=ADVANCED_FACE('240[2]',(#123,#124,#125),#126,.T.);
#60=PRESENTATION_STYLE_ASSIGNMENT((#127));
#61=EDGE_CURVE('240[2]',#128,#128,#129,.T.);
#62=PRESENTATION_STYLE_ASSIGNMENT((#130));
#63=PRESENTATION_STYLE_ASSIGNMENT((#131));
#64=ADVANCED_FACE('240[2]',(#132),#133,.T.);
#65=PRESENTATION_STYLE_ASSIGNMENT((#134));
#66=PRESENTATION_STYLE_ASSIGNMENT((#135));
#67=ADVANCED_FACE('240[2]',(#136,#137),#138,.F.);
#68=PRESENTATION_STYLE_ASSIGNMENT((#139));
#69=EDGE_CURVE('240[2]',#103,#102,#140,.T.);
#70=PRESENTATION_STYLE_ASSIGNMENT((#141));
#71=PRESENTATION_STYLE_ASSIGNMENT((#142));
#72=ADVANCED_FACE('240[2]',(#143),#144,.F.);
#73=PRESENTATION_STYLE_ASSIGNMENT((#145));
#74=PRESENTATION_STYLE_ASSIGNMENT((#146));
#75=ADVANCED_FACE('240[2]',(#147),#148,.T.);
#76=PRODUCT('240[2]','240[2]','PART-240[2]-DESC',(#149));
#77=PRODUCT_DEFINITION('NONE','NONE',#150,#2);
#78=AXIS2_PLACEMENT_3D('',#151,#152,#153);
#81=LENGTH_MEASURE_WITH_UNIT(LENGTH_MEASURE(1.0),#154);
#84=DIMENSIONAL_EXPONENTS(1.0,0.0,0.0,0.0,0.0,0.0,0.0);
#86=DIMENSIONAL_EXPONENTS(0.0,0.0,0.0,0.0,0.0,0.0,0.0);
#92=CURVE_STYLE('',#155,POSITIVE_LENGTH_MEASURE(1000.0),#156);
#93=VERTEX_POINT('',#157);
#94=CIRCLE('',#158,9.0);
#95=CURVE_STYLE('',#159,POSITIVE_LENGTH_MEASURE(1000.0),#160);
#96=VERTEX_POINT('',#161);
#97=CIRCLE('',#162,15.5);
#98=CURVE_STYLE('',#163,POSITIVE_LENGTH_MEASURE(1000.0),#164);
#99=VERTEX_POINT('',#165);
#100=CIRCLE('',#166,3.1);
#101=CURVE_STYLE('',#167,POSITIVE_LENGTH_MEASURE(1000.0),#168);
#102=VERTEX_POINT('',#169);
#103=VERTEX_POINT('',#170);
#104=B_SPLINE_CURVE_WITH_KNOTS('',3,(#171,#172,#173,#174,#175,#176,#177,#178,#179,#180,#181,#182,#183,#184,#185,#186,#187,#188,#189,#190,#191,#192,#193,#194,#195,#196,#197,#198,#199,#200,#201,#202,#203,#204,#205,#206,#207,#208,#209,#210,#211,#212,#213,#214,#215,#216,#217,#218,#219,#220,#221,#222,#223,#224,#225,#226,#227,#228,#229,#230,#231,#232,#233,#234,#235,#236),.UNSPECIFIED.,.T.,.F.,(4,2,2,2,2,2,2,2,2,2,2,2,2,2,2,2,2,2,2,2,2,2,2,2,2,2,2,2,2,2,2,2,4),(0.0,0.585582646629803,1.17116529325961,1.75674793988941,2.34233058651921,2.92788042022872,3.51343025393822,4.09898008764773,4.68452992135724,5.27007975506674,5.85562958877625,6.44117942248576,7.02672925619526,7.61231190282506,8.19789454945487,8.78347719608467,9.36905984271447,9.95464248934427,10.5402251359741,11.1258077826039,11.7113904292337,12.2969402629432,12.8824900966527,13.4680399303622,14.0535897640717,14.6391395977812,15.2246894314907,15.8102392652002,16.3957890989097,16.9813717455395,17.5669543921693,18.1525370387991,18.7381196854289),.UNSPECIFIED.);
#105=CURVE_STYLE('',#237,POSITIVE_LENGTH_MEASURE(1000.0),#238);
#106=VERTEX_POINT('',#239);
#107=CIRCLE('',#240,9.0);
#108=SURFACE_STYLE_USAGE(.BOTH.,#241);
#109=CURVE_STYLE('',#242,POSITIVE_LENGTH_MEASURE(1000.0),#243);
#110=CLOSED_SHELL('',(#67,#75,#53,#72,#56,#59,#64));
#111=SURFACE_STYLE_USAGE(.BOTH.,#244);
#112=CURVE_STYLE('',#245,POSITIVE_LENGTH_MEASURE(1000.0),#246);
#113=FACE_BOUND('',#247,.T.);
#114=FACE_BOUND('',#248,.T.);
#115=CYLINDRICAL_SURFACE('',#249,9.0);
#116=SURFACE_STYLE_USAGE(.BOTH.,#250);
#117=CURVE_STYLE('',#251,POSITIVE_LENGTH_MEASURE(1000.0),#252);
#118=FACE_BOUND('',#253,.T.);
#119=FACE_OUTER_BOUND('',#254,.T.);
#120=PLANE('',#255);
#121=SURFACE_STYLE_USAGE(.BOTH.,#256);
#122=CURVE_STYLE('',#257,POSITIVE_LENGTH_MEASURE(1000.0),#258);
#123=FACE_BOUND('',#259,.T.);
#124=FACE_BOUND('',#260,.T.);
#125=FACE_BOUND('',#261,.T.);
#126=CYLINDRICAL_SURFACE('',#262,15.5);
#127=CURVE_STYLE('',#263,POSITIVE_LENGTH_MEASURE(1000.0),#264);
#128=VERTEX_POINT('',#265);
#129=CIRCLE('',#266,15.5);
#130=SURFACE_STYLE_USAGE(.BOTH.,#267);
#131=CURVE_STYLE('',#268,POSITIVE_LENGTH_MEASURE(1000.0),#269);
#132=FACE_OUTER_BOUND('',#270,.T.);
#133=PLANE('',#271);
#134=SURFACE_STYLE_USAGE(.BOTH.,#272);
#135=CURVE_STYLE('',#273,POSITIVE_LENGTH_MEASURE(1000.0),#274);
#136=FACE_BOUND('',#275,.T.);
#137=FACE_BOUND('',#276,.T.);
#138=CYLINDRICAL_SURFACE('',#277,3.1);
#139=CURVE_STYLE('',#278,POSITIVE_LENGTH_MEASURE(1000.0),#279);
#140=B_SPLINE_CURVE_WITH_KNOTS('',3,(#280,#281,#282,#283,#284,#285,#286,#287,#288,#289,#290,#291,#292,#293,#294,#295,#296,#297,#298,#299,#300,#301,#302,#303,#304,#305,#306,#307,#308,#309,#310,#311,#312,#313,#314,#315,#316,#317,#318,#319,#320,#321,#322,#323,#324,#325,#326,#327,#328,#329,#330,#331,#332,#333,#334,#335,#336,#337,#338,#339,#340,#341,#342,#343,#344,#345),.UNSPECIFIED.,.T.,.F.,(4,2,2,2,2,2,2,2,2,2,2,2,2,2,2,2,2,2,2,2,2,2,2,2,2,2,2,2,2,2,2,2,4),(0.0,0.585582646629803,1.17116529325961,1.75674793988941,2.34233058651921,2.92788042022872,3.51343025393822,4.09898008764773,4.68452992135724,5.27007975506674,5.85562958877625,6.44117942248576,7.02672925619526,7.61231190282506,8.19789454945487,8.78347719608467,9.36905984271447,9.95464248934427,10.5402251359741,11.1258077826039,11.7113904292337,12.2969402629432,12.8824900966527,13.4680399303622,14.0535897640717,14.6391395977812,15.2246894314907,15.8102392652002,16.3957890989097,16.9813717455395,17.5669543921693,18.1525370387991,18.7381196854289),.UNSPECIFIED.);
#141=SURFACE_STYLE_USAGE(.BOTH.,#346);
#142=CURVE_STYLE('',#347,POSITIVE_LENGTH_MEASURE(1000.0),#348);
#143=FACE_OUTER_BOUND('',#349,.T.);
#144=PLANE('',#350);
#145=SURFACE_STYLE_USAGE(.BOTH.,#351);
#146=CURVE_STYLE('',#352,POSITIVE_LENGTH_MEASURE(1000.0),#353);
#147=FACE_OUTER_BOUND('',#354,.T.);
#148=PLANE('',#355);
#149=PRODUCT_CONTEXT('',#25,'mechanical');
#150=PRODUCT_DEFINITION_FORMATION_WITH_SPECIFIED_SOURCE(' ','NONE',#76,.NOT_KNOWN.);
#151=CARTESIAN_POINT('',(0.0,0.0,0.0));
#152=DIRECTION('',(0.0,0.0,1.0));
#153=DIRECTION('',(1.0,0.0,0.0));
#154= (NAMED_UNIT(#84)LENGTH_UNIT()SI_UNIT(.MILLI.,.METRE.));
#155=DRAUGHTING_PRE_DEFINED_CURVE_FONT('continuous');
#156=COLOUR_RGB('',0.501960813999176,0.501960813999176,0.501960813999176);
#157=CARTESIAN_POINT('',(9.0,0.0,0.0));
#158=AXIS2_PLACEMENT_3D('',#357,#358,#359);
#159=DRAUGHTING_PRE_DEFINED_CURVE_FONT('continuous');
#160=COLOUR_RGB('',0.501960813999176,0.501960813999176,0.501960813999176);
#161=CARTESIAN_POINT('',(-1.91052250483214E-031,15.5,1.8982025386784E-015));
#162=AXIS2_PLACEMENT_3D('',#360,#361,#362);
#163=DRAUGHTING_PRE_DEFINED_CURVE_FONT('continuous');
#164=COLOUR_RGB('',0.501960813999176,0.501960813999176,0.501960813999176);
#165=CARTESIAN_POINT('',(3.1,15.0,7.9999999999992));
#166=AXIS2_PLACEMENT_3D('',#363,#364,#365);
#167=DRAUGHTING_PRE_DEFINED_CURVE_FONT('continuous');
#168=COLOUR_RGB('',0.501960813999176,0.501960813999176,0.501960813999176);
#169=CARTESIAN_POINT('',(-2.95752201994086E-015,15.5,4.8999999999992));
#170=CARTESIAN_POINT('',(-2.1982410044695E-015,15.5,11.0999999999992));
#171=CARTESIAN_POINT('',(3.1,15.1868364052557,7.9999999999992));
#172=CARTESIAN_POINT('',(3.1,15.1868364052557,8.19519421554247));
#173=CARTESIAN_POINT('',(3.08126696905541,15.1907012625467,8.3968814827692));
#174=CARTESIAN_POINT('',(3.0025539397166,15.2064552352245,8.79774111453287));
#175=CARTESIAN_POINT('',(2.94259269995552,15.2183323000229,8.99691763579889));
#176=CARTESIAN_POINT('',(2.78424876312516,15.2480965497249,9.37864268899455));
#177=CARTESIAN_POINT('',(2.68574015614673,15.2659784517932,9.56150531588854));
#178=CARTESIAN_POINT('',(2.45830130164731,15.3042495074566,9.89954040476946));
#179=CARTESIAN_POINT('',(2.32935531923688,15.324599394954,10.0547067241189));
#180=CARTESIAN_POINT('',(2.05471441903904,15.363833809268,10.3293476243168));
#181=CARTESIAN_POINT('',(1.89955167038187,15.3841032027857,10.4582927541716));
#182=CARTESIAN_POINT('',(1.56151431957605,15.4220816017817,10.6857350658484));
#183=CARTESIAN_POINT('',(1.37864586449792,15.4397532832957,10.7842476143235));
#184=CARTESIAN_POINT('',(0.996909454068491,15.4690923264716,10.9425959253947));
#185=CARTESIAN_POINT('',(0.797727571773187,15.480757825878,11.0025575747224));
#186=CARTESIAN_POINT('',(0.396866504697319,15.4962166066334,11.0812689343459));
#187=CARTESIAN_POINT('',(0.195183277903166,15.5,11.0999999999992));
#188=CARTESIAN_POINT('',(-0.195183277903172,15.5,11.0999999999992));
#189=CARTESIAN_POINT('',(-0.396866504697324,15.4962166066334,11.0812689343459));
#190=CARTESIAN_POINT('',(-0.797727571773192,15.480757825878,11.0025575747224));
#191=CARTESIAN_POINT('',(-0.996909454068496,15.4690923264716,10.9425959253947));
#192=CARTESIAN_POINT('',(-1.37864586449792,15.4397532832957,10.7842476143235));
#193=CARTESIAN_POINT('',(-1.56151431957606,15.4220816017817,10.6857350658484));
#194=CARTESIAN_POINT('',(-1.89955167038188,15.3841032027857,10.4582927541716));
#195=CARTESIAN_POINT('',(-2.05471441903905,15.363833809268,10.3293476243168));
#196=CARTESIAN_POINT('',(-2.32935531923689,15.324599394954,10.0547067241189));
#197=CARTESIAN_POINT('',(-2.45830130164731,15.3042495074566,9.89954040476946));
#198=CARTESIAN_POINT('',(-2.68574015614674,15.2659784517932,9.56150531588854));
#199=CARTESIAN_POINT('',(-2.78424876312516,15.2480965497249,9.37864268899455));
#200=CARTESIAN_POINT('',(-2.94259269995552,15.2183323000229,8.99691763579889));
#201=CARTESIAN_POINT('',(-3.0025539397166,15.2064552352244,8.79774111453287));
#202=CARTESIAN_POINT('',(-3.08126696905541,15.1907012625467,8.3968814827692));
#203=CARTESIAN_POINT('',(-3.1,15.1868364052557,8.19519421554247));
#204=CARTESIAN_POINT('',(-3.1,15.1868364052557,7.80480578445594));
#205=CARTESIAN_POINT('',(-3.08126696905541,15.1907012625467,7.60311851722921));
#206=CARTESIAN_POINT('',(-3.0025539397166,15.2064552352244,7.20225888546554));
#207=CARTESIAN_POINT('',(-2.94259269995553,15.2183323000229,7.00308236419951));
#208=CARTESIAN_POINT('',(-2.78424876312517,15.2480965497249,6.62135731100386));
#209=CARTESIAN_POINT('',(-2.68574015614674,15.2659784517932,6.43849468410987));
#210=CARTESIAN_POINT('',(-2.45830130164732,15.3042495074566,6.10045959522895));
#211=CARTESIAN_POINT('',(-2.32935531923689,15.324599394954,5.94529327587949));
#212=CARTESIAN_POINT('',(-2.05471441903905,15.363833809268,5.67065237568165));
#213=CARTESIAN_POINT('',(-1.89955167038188,15.3841032027857,5.54170724582682));
#214=CARTESIAN_POINT('',(-1.56151431957606,15.4220816017817,5.31426493414996));
#215=CARTESIAN_POINT('',(-1.37864586449793,15.4397532832957,5.21575238567487));
#216=CARTESIAN_POINT('',(-0.996909454068499,15.4690923264716,5.0574040746037));
#217=CARTESIAN_POINT('',(-0.797727571773193,15.480757825878,4.99744242527601));
#218=CARTESIAN_POINT('',(-0.396866504697324,15.4962166066334,4.9187310656525));
#219=CARTESIAN_POINT('',(-0.195183277903171,15.5,4.89999999999921));
#220=CARTESIAN_POINT('',(0.195183277903167,15.5,4.89999999999921));
#221=CARTESIAN_POINT('',(0.39686650469732,15.4962166066334,4.9187310656525));
#222=CARTESIAN_POINT('',(0.797727571773191,15.480757825878,4.99744242527601));
#223=CARTESIAN_POINT('',(0.996909454068497,15.4690923264716,5.0574040746037));
#224=CARTESIAN_POINT('',(1.37864586449793,15.4397532832957,5.21575238567487));
#225=CARTESIAN_POINT('',(1.56151431957606,15.4220816017817,5.31426493414996));
#226=CARTESIAN_POINT('',(1.89955167038188,15.3841032027857,5.54170724582682));
#227=CARTESIAN_POINT('',(2.05471441903904,15.363833809268,5.67065237568165));
#228=CARTESIAN_POINT('',(2.32935531923689,15.324599394954,5.94529327587949));
#229=CARTESIAN_POINT('',(2.45830130164731,15.3042495074566,6.10045959522895));
#230=CARTESIAN_POINT('',(2.68574015614674,15.2659784517932,6.43849468410987));
#231=CARTESIAN_POINT('',(2.78424876312516,15.2480965497249,6.62135731100386));
#232=CARTESIAN_POINT('',(2.94259269995552,15.2183323000229,7.00308236419951));
#233=CARTESIAN_POINT('',(3.0025539397166,15.2064552352244,7.20225888546554));
#234=CARTESIAN_POINT('',(3.08126696905541,15.1907012625467,7.60311851722921));
#235=CARTESIAN_POINT('',(3.1,15.1868364052557,7.80480578445594));
#236=CARTESIAN_POINT('',(3.1,15.1868364052557,7.9999999999992));
#237=DRAUGHTING_PRE_DEFINED_CURVE_FONT('continuous');
#238=COLOUR_RGB('',0.501960813999176,0.501960813999176,0.501960813999176);
#239=CARTESIAN_POINT('',(9.0,0.0,22.0));
#240=AXIS2_PLACEMENT_3D('',#366,#367,#368);
#241=SURFACE_SIDE_STYLE('',(#369));
#242=DRAUGHTING_PRE_DEFINED_CURVE_FONT('continuous');
#243=COLOUR_RGB('',0.501960813999176,0.501960813999176,0.501960813999176);
#244=SURFACE_SIDE_STYLE('',(#370));
#245=DRAUGHTING_PRE_DEFINED_CURVE_FONT('continuous');
#246=COLOUR_RGB('',0.501960813999176,0.501960813999176,0.501960813999176);
#247=EDGE_LOOP('',(#371));
#248=EDGE_LOOP('',(#372));
#249=AXIS2_PLACEMENT_3D('',#373,#374,#375);
#250=SURFACE_SIDE_STYLE('',(#376));
#251=DRAUGHTING_PRE_DEFINED_CURVE_FONT('continuous');
#252=COLOUR_RGB('',0.501960813999176,0.501960813999176,0.501960813999176);
#253=EDGE_LOOP('',(#377));
#254=EDGE_LOOP('',(#378));
#255=AXIS2_PLACEMENT_3D('',#379,#380,#381);
#256=SURFACE_SIDE_STYLE('',(#382));
#257=DRAUGHTING_PRE_DEFINED_CURVE_FONT('continuous');
#258=COLOUR_RGB('',0.501960813999176,0.501960813999176,0.501960813999176);
#259=EDGE_LOOP('',(#383,#384));
#260=EDGE_LOOP('',(#385));
#261=EDGE_LOOP('',(#386));
#262=AXIS2_PLACEMENT_3D('',#387,#388,#389);
#263=DRAUGHTING_PRE_DEFINED_CURVE_FONT('continuous');
#264=COLOUR_RGB('',0.501960813999176,0.501960813999176,0.501960813999176);
#265=CARTESIAN_POINT('',(-1.71450551880629E-014,15.5,280.0));
#266=AXIS2_PLACEMENT_3D('',#390,#391,#392);
#267=SURFACE_SIDE_STYLE('',(#393));
#268=DRAUGHTING_PRE_DEFINED_CURVE_FONT('continuous');
#269=COLOUR_RGB('',0.501960813999176,0.501960813999176,0.501960813999176);
#270=EDGE_LOOP('',(#394));
#271=AXIS2_PLACEMENT_3D('',#395,#396,#397);
#272=SURFACE_SIDE_STYLE('',(#398));
#273=DRAUGHTING_PRE_DEFINED_CURVE_FONT('continuous');
#274=COLOUR_RGB('',0.501960813999176,0.501960813999176,0.501960813999176);
#275=EDGE_LOOP('',(#399,#400));
#276=EDGE_LOOP('',(#401));
#277=AXIS2_PLACEMENT_3D('',#402,#403,#404);
#278=DRAUGHTING_PRE_DEFINED_CURVE_FONT('continuous');
#279=COLOUR_RGB('',0.501960813999176,0.501960813999176,0.501960813999176);
#280=CARTESIAN_POINT('',(3.1,15.1868364052557,7.9999999999992));
#281=CARTESIAN_POINT('',(3.1,15.1868364052557,8.19519421554247));
#282=CARTESIAN_POINT('',(3.08126696905541,15.1907012625467,8.3968814827692));
#283=CARTESIAN_POINT('',(3.0025539397166,15.2064552352245,8.79774111453287));
#284=CARTESIAN_POINT('',(2.94259269995552,15.2183323000229,8.99691763579889));
#285=CARTESIAN_POINT('',(2.78424876312516,15.2480965497249,9.37864268899455));
#286=CARTESIAN_POINT('',(2.68574015614673,15.2659784517932,9.56150531588854));
#287=CARTESIAN_POINT('',(2.45830130164731,15.3042495074566,9.89954040476946));
#288=CARTESIAN_POINT('',(2.32935531923688,15.324599394954,10.0547067241189));
#289=CARTESIAN_POINT('',(2.05471441903904,15.363833809268,10.3293476243168));
#290=CARTESIAN_POINT('',(1.89955167038187,15.3841032027857,10.4582927541716));
#291=CARTESIAN_POINT('',(1.56151431957605,15.4220816017817,10.6857350658484));
#292=CARTESIAN_POINT('',(1.37864586449792,15.4397532832957,10.7842476143235));
#293=CARTESIAN_POINT('',(0.996909454068491,15.4690923264716,10.9425959253947));
#294=CARTESIAN_POINT('',(0.797727571773187,15.480757825878,11.0025575747224));
#295=CARTESIAN_POINT('',(0.396866504697319,15.4962166066334,11.0812689343459));
#296=CARTESIAN_POINT('',(0.195183277903166,15.5,11.0999999999992));
#297=CARTESIAN_POINT('',(-0.195183277903172,15.5,11.0999999999992));
#298=CARTESIAN_POINT('',(-0.396866504697324,15.4962166066334,11.0812689343459));
#299=CARTESIAN_POINT('',(-0.797727571773192,15.480757825878,11.0025575747224));
#300=CARTESIAN_POINT('',(-0.996909454068496,15.4690923264716,10.9425959253947));
#301=CARTESIAN_POINT('',(-1.37864586449792,15.4397532832957,10.7842476143235));
#302=CARTESIAN_POINT('',(-1.56151431957606,15.4220816017817,10.6857350658484));
#303=CARTESIAN_POINT('',(-1.89955167038188,15.3841032027857,10.4582927541716));
#304=CARTESIAN_POINT('',(-2.05471441903905,15.363833809268,10.3293476243168));
#305=CARTESIAN_POINT('',(-2.32935531923689,15.324599394954,10.0547067241189));
#306=CARTESIAN_POINT('',(-2.45830130164731,15.3042495074566,9.89954040476946));
#307=CARTESIAN_POINT('',(-2.68574015614674,15.2659784517932,9.56150531588854));
#308=CARTESIAN_POINT('',(-2.78424876312516,15.2480965497249,9.37864268899455));
#309=CARTESIAN_POINT('',(-2.94259269995552,15.2183323000229,8.99691763579889));
#310=CARTESIAN_POINT('',(-3.0025539397166,15.2064552352244,8.79774111453287));
#311=CARTESIAN_POINT('',(-3.08126696905541,15.1907012625467,8.3968814827692));
#312=CARTESIAN_POINT('',(-3.1,15.1868364052557,8.19519421554247));
#313=CARTESIAN_POINT('',(-3.1,15.1868364052557,7.80480578445594));
#314=CARTESIAN_POINT('',(-3.08126696905541,15.1907012625467,7.60311851722921));
#315=CARTESIAN_POINT('',(-3.0025539397166,15.2064552352244,7.20225888546554));
#316=CARTESIAN_POINT('',(-2.94259269995553,15.2183323000229,7.00308236419951));
#317=CARTESIAN_POINT('',(-2.78424876312517,15.2480965497249,6.62135731100386));
#318=CARTESIAN_POINT('',(-2.68574015614674,15.2659784517932,6.43849468410987));
#319=CARTESIAN_POINT('',(-2.45830130164732,15.3042495074566,6.10045959522895));
#320=CARTESIAN_POINT('',(-2.32935531923689,15.324599394954,5.94529327587949));
#321=CARTESIAN_POINT('',(-2.05471441903905,15.363833809268,5.67065237568165));
#322=CARTESIAN_POINT('',(-1.89955167038188,15.3841032027857,5.54170724582682));
#323=CARTESIAN_POINT('',(-1.56151431957606,15.4220816017817,5.31426493414996));
#324=CARTESIAN_POINT('',(-1.37864586449793,15.4397532832957,5.21575238567487));
#325=CARTESIAN_POINT('',(-0.996909454068499,15.4690923264716,5.0574040746037));
#326=CARTESIAN_POINT('',(-0.797727571773193,15.480757825878,4.99744242527601));
#327=CARTESIAN_POINT('',(-0.396866504697324,15.4962166066334,4.9187310656525));
#328=CARTESIAN_POINT('',(-0.195183277903171,15.5,4.89999999999921));
#329=CARTESIAN_POINT('',(0.195183277903167,15.5,4.89999999999921));
#330=CARTESIAN_POINT('',(0.39686650469732,15.4962166066334,4.9187310656525));
#331=CARTESIAN_POINT('',(0.797727571773191,15.480757825878,4.99744242527601));
#332=CARTESIAN_POINT('',(0.996909454068497,15.4690923264716,5.0574040746037));
#333=CARTESIAN_POINT('',(1.37864586449793,15.4397532832957,5.21575238567487));
#334=CARTESIAN_POINT('',(1.56151431957606,15.4220816017817,5.31426493414996));
#335=CARTESIAN_POINT('',(1.89955167038188,15.3841032027857,5.54170724582682));
#336=CARTESIAN_POINT('',(2.05471441903904,15.363833809268,5.67065237568165));
#337=CARTESIAN_POINT('',(2.32935531923689,15.324599394954,5.94529327587949));
#338=CARTESIAN_POINT('',(2.45830130164731,15.3042495074566,6.10045959522895));
#339=CARTESIAN_POINT('',(2.68574015614674,15.2659784517932,6.43849468410987));
#340=CARTESIAN_POINT('',(2.78424876312516,15.2480965497249,6.62135731100386));
#341=CARTESIAN_POINT('',(2.94259269995552,15.2183323000229,7.00308236419951));
#342=CARTESIAN_POINT('',(3.0025539397166,15.2064552352244,7.20225888546554));
#343=CARTESIAN_POINT('',(3.08126696905541,15.1907012625467,7.60311851722921));
#344=CARTESIAN_POINT('',(3.1,15.1868364052557,7.80480578445594));
#345=CARTESIAN_POINT('',(3.1,15.1868364052557,7.9999999999992));
#346=SURFACE_SIDE_STYLE('',(#405));
#347=DRAUGHTING_PRE_DEFINED_CURVE_FONT('continuous');
#348=COLOUR_RGB('',0.501960813999176,0.501960813999176,0.501960813999176);
#349=EDGE_LOOP('',(#406));
#350=AXIS2_PLACEMENT_3D('',#407,#408,#409);
#351=SURFACE_SIDE_STYLE('',(#410));
#352=DRAUGHTING_PRE_DEFINED_CURVE_FONT('continuous');
#353=COLOUR_RGB('',0.501960813999176,0.501960813999176,0.501960813999176);
#354=EDGE_LOOP('',(#411));
#355=AXIS2_PLACEMENT_3D('',#412,#413,#414);
#357=CARTESIAN_POINT('',(0.0,0.0,9.49101269339199E-016));
#358=DIRECTION('',(-6.12323399573677E-017,-1.22464679914735E-016,1.0));
#359=DIRECTION('',(1.0,-7.49879891330927E-033,6.12323399573677E-017));
#360=CARTESIAN_POINT('',(0.0,0.0,0.0));
#361=DIRECTION('',(-6.12323399573676E-017,-1.22464679914735E-016,1.0));
#362=DIRECTION('',(-1.23259516440783E-032,1.0,1.22464679914735E-016));
#363=CARTESIAN_POINT('',(-2.38806125833734E-015,15.0,7.9999999999992));
#364=DIRECTION('',(-0.0,1.0,0.0));
#365=DIRECTION('',(1.0,0.0,0.0));
#366=CARTESIAN_POINT('',(0.0,0.0,22.0));
#367=DIRECTION('',(0.0,0.0,-1.0));
#368=DIRECTION('',(1.0,0.0,0.0));
#369=SURFACE_STYLE_FILL_AREA(#415);
#370=SURFACE_STYLE_FILL_AREA(#416);
#371=ORIENTED_EDGE('',*,*,#47,.F.);
#372=ORIENTED_EDGE('',*,*,#39,.F.);
#373=CARTESIAN_POINT('',(0.0,0.0,0.0));
#374=DIRECTION('',(0.0,0.0,-1.0));
#375=DIRECTION('',(1.0,0.0,0.0));
#376=SURFACE_STYLE_FILL_AREA(#417);
#377=ORIENTED_EDGE('',*,*,#39,.T.);
#378=ORIENTED_EDGE('',*,*,#41,.F.);
#379=CARTESIAN_POINT('',(-9.55261252416069E-032,7.75,9.49101269339199E-016));
#380=DIRECTION('',(6.12323399573677E-017,1.22464679914735E-016,-1.0));
#381=DIRECTION('',(-1.0,0.0,-6.12323399573677E-017));
#382=SURFACE_STYLE_FILL_AREA(#418);
#383=ORIENTED_EDGE('',*,*,#69,.T.);
#384=ORIENTED_EDGE('',*,*,#45,.T.);
#385=ORIENTED_EDGE('',*,*,#61,.F.);
#386=ORIENTED_EDGE('',*,*,#41,.T.);
#387=CARTESIAN_POINT('',(-8.57252759403147E-015,-1.71450551880629E-014,140.0));
#388=DIRECTION('',(6.12323399573677E-017,1.22464679914735E-016,-1.0));
#389=DIRECTION('',(-1.23259516440783E-032,1.0,1.22464679914735E-016));
#390=CARTESIAN_POINT('',(-1.71450551880629E-014,-3.42901103761259E-014,280.0));
#391=DIRECTION('',(-6.12323399573677E-017,-1.22464679914735E-016,1.0));
#392=DIRECTION('',(-1.23259516440783E-032,1.0,1.22464679914735E-016));
#393=SURFACE_STYLE_FILL_AREA(#419);
#394=ORIENTED_EDGE('',*,*,#61,.T.);
#395=CARTESIAN_POINT('',(-1.71450551880629E-014,7.74999999999997,280.0));
#396=DIRECTION('',(-9.18338008663382E-049,-1.22464679914735E-016,1.0));
#397=DIRECTION('',(1.0,-7.49879891330927E-033,0.0));
#398=SURFACE_STYLE_FILL_AREA(#420);
#399=ORIENTED_EDGE('',*,*,#69,.F.);
#400=ORIENTED_EDGE('',*,*,#45,.F.);
#401=ORIENTED_EDGE('',*,*,#43,.F.);
#402=CARTESIAN_POINT('',(-2.38806125833734E-015,15.5,7.9999999999992));
#403=DIRECTION('',(-0.0,1.0,0.0));
#404=DIRECTION('',(1.0,0.0,0.0));
#405=SURFACE_STYLE_FILL_AREA(#421);
#406=ORIENTED_EDGE('',*,*,#47,.T.);
#407=CARTESIAN_POINT('',(1.59430065779055,8.85766365429217,22.0));
#408=DIRECTION('',(0.0,0.0,1.0));
#409=DIRECTION('',(1.0,0.0,0.0));
#410=SURFACE_STYLE_FILL_AREA(#422);
#411=ORIENTED_EDGE('',*,*,#43,.T.);
#412=CARTESIAN_POINT('',(0.549148004350074,15.0,4.9490269635208));
#413=DIRECTION('',(-0.0,1.0,0.0));
#414=DIRECTION('',(1.0,0.0,0.0));
#415=FILL_AREA_STYLE('',(#423));
#416=FILL_AREA_STYLE('',(#424));
#417=FILL_AREA_STYLE('',(#425));
#418=FILL_AREA_STYLE('',(#426));
#419=FILL_AREA_STYLE('',(#427));
#420=FILL_AREA_STYLE('',(#428));
#421=FILL_AREA_STYLE('',(#429));
#422=FILL_AREA_STYLE('',(#430));
#423=FILL_AREA_STYLE_COLOUR('',#431);
#424=FILL_AREA_STYLE_COLOUR('',#432);
#425=FILL_AREA_STYLE_COLOUR('',#433);
#426=FILL_AREA_STYLE_COLOUR('',#434);
#427=FILL_AREA_STYLE_COLOUR('',#435);
#428=FILL_AREA_STYLE_COLOUR('',#436);
#429=FILL_AREA_STYLE_COLOUR('',#437);
#430=FILL_AREA_STYLE_COLOUR('',#438);
#431=COLOUR_RGB('',0.501960813999176,0.501960813999176,0.501960813999176);
#432=COLOUR_RGB('',0.501960813999176,0.501960813999176,0.501960813999176);
#433=COLOUR_RGB('',0.501960813999176,0.501960813999176,0.501960813999176);
#434=COLOUR_RGB('',0.501960813999176,0.501960813999176,0.501960813999176);
#435=COLOUR_RGB('',0.501960813999176,0.501960813999176,0.501960813999176);
#436=COLOUR_RGB('',0.501960813999176,0.501960813999176,0.501960813999176);
#437=COLOUR_RGB('',0.501960813999176,0.501960813999176,0.501960813999176);
#438=COLOUR_RGB('',0.501960813999176,0.501960813999176,0.501960813999176);
ENDSEC;
END-ISO-10303-21;
