ISO-10303-21;
HEADER;
FILE_DESCRIPTION((''),'1');
FILE_NAME('T:/00_BIG-HP\X2\FF71FF6FFF8CFF9F\X0\/2022_\X2\30C030A630F330ED30FC30C930C730FC30BF\X0\/02_STEP\X2\FF83FF9EFF70FF80\X0\/LINK\X2\7528FF83FF9EFF70FF80FF8EFF99FF80FF9E\X0\/CK\X2\FF8DFF6FFF84FF9E30FBFF71FF78FF7EFF7BFF98\X0\/11_CK\X2\8D85786CFF7DFF84FF9AFF70FF84FF7CFF6CFF9DFF78\X0\/01_CK\X2\8D85786CFF7DFF84FF9AFF70FF84FF7CFF6CFF9DFF78\X0\/\X2\5EA76A19\X0\_\X2\5C5E6027590966F4\X0\/ST31W-CKB3-200.stp','2022-09-28T06:16:23',(''),(''),'Spatial Interop R21 SP3','Kubotek KeyCreator 2011 V10.0.2 (22737)',' ');
FILE_SCHEMA(('automotive_design'));
ENDSEC;
DATA;
#1=MECHANICAL_DESIGN_GEOMETRIC_PRESENTATION_REPRESENTATION(' ',(#10,#11,#12,#13,#14,#15,#16,#17,#18,#19,#20,#21,#22,#23,#24),#6);
#2=PRODUCT_DEFINITION_CONTEXT('',#25,'design');
#3=APPLICATION_PROTOCOL_DEFINITION('INTERNATIONAL STANDARD','automotive_design',1994,#25);
#4=PRODUCT_CATEGORY_RELATIONSHIP('NONE','NONE',#26,#27);
#5=SHAPE_DEFINITION_REPRESENTATION(#28,#29);
#6= (GEOMETRIC_REPRESENTATION_CONTEXT(3)GLOBAL_UNCERTAINTY_ASSIGNED_CONTEXT((#32))GLOBAL_UNIT_ASSIGNED_CONTEXT((#34,#35,#36))REPRESENTATION_CONTEXT('NONE','WORKSPACE'));
#10=STYLED_ITEM('',(#38,#39),#40);
#11=STYLED_ITEM('',(#41),#42);
#12=STYLED_ITEM('',(#43,#44),#45);
#13=STYLED_ITEM('',(#46,#47),#48);
#14=STYLED_ITEM('',(#49,#50),#51);
#15=STYLED_ITEM('',(#52,#53),#54);
#16=STYLED_ITEM('',(#55,#56),#57);
#17=STYLED_ITEM('',(#58),#59);
#18=STYLED_ITEM('',(#60),#61);
#19=STYLED_ITEM('',(#62),#63);
#20=STYLED_ITEM('',(#64,#65),#66);
#21=STYLED_ITEM('',(#67),#68);
#22=STYLED_ITEM('',(#69),#70);
#23=STYLED_ITEM('',(#71),#72);
#24=STYLED_ITEM('',(#73,#74),#75);
#25=APPLICATION_CONTEXT(' ');
#26=PRODUCT_CATEGORY('part','NONE');
#27=PRODUCT_RELATED_PRODUCT_CATEGORY('detail',' ',(#76));
#28=PRODUCT_DEFINITION_SHAPE('NONE','NONE',#77);
#29=ADVANCED_BREP_SHAPE_REPRESENTATION('240[2]',(#66,#78),#6);
#32=UNCERTAINTY_MEASURE_WITH_UNIT(LENGTH_MEASURE(1.0E-006),#34,'','');
#34= (CONVERSION_BASED_UNIT('MILLIMETRE',#81)LENGTH_UNIT()NAMED_UNIT(#84));
#35= (NAMED_UNIT(#86)PLANE_ANGLE_UNIT()SI_UNIT($,.RADIAN.));
#36= (NAMED_UNIT(#86)SOLID_ANGLE_UNIT()SI_UNIT($,.STERADIAN.));
#38=PRESENTATION_STYLE_ASSIGNMENT((#92));
#39=PRESENTATION_STYLE_ASSIGNMENT((#93));
#40=ADVANCED_FACE('240[2]',(#94),#95,.T.);
#41=PRESENTATION_STYLE_ASSIGNMENT((#96));
#42=EDGE_CURVE('240[2]',#97,#97,#98,.T.);
#43=PRESENTATION_STYLE_ASSIGNMENT((#99));
#44=PRESENTATION_STYLE_ASSIGNMENT((#100));
#45=ADVANCED_FACE('240[2]',(#101),#102,.T.);
#46=PRESENTATION_STYLE_ASSIGNMENT((#103));
#47=PRESENTATION_STYLE_ASSIGNMENT((#104));
#48=ADVANCED_FACE('240[2]',(#105,#106),#107,.T.);
#49=PRESENTATION_STYLE_ASSIGNMENT((#108));
#50=PRESENTATION_STYLE_ASSIGNMENT((#109));
#51=ADVANCED_FACE('240[2]',(#110),#111,.F.);
#52=PRESENTATION_STYLE_ASSIGNMENT((#112));
#53=PRESENTATION_STYLE_ASSIGNMENT((#113));
#54=ADVANCED_FACE('240[2]',(#114,#115),#116,.F.);
#55=PRESENTATION_STYLE_ASSIGNMENT((#117));
#56=PRESENTATION_STYLE_ASSIGNMENT((#118));
#57=ADVANCED_FACE('240[2]',(#119,#120,#121),#122,.T.);
#58=PRESENTATION_STYLE_ASSIGNMENT((#123));
#59=EDGE_CURVE('240[2]',#124,#124,#125,.T.);
#60=PRESENTATION_STYLE_ASSIGNMENT((#126));
#61=EDGE_CURVE('240[2]',#127,#128,#129,.T.);
#62=PRESENTATION_STYLE_ASSIGNMENT((#130));
#63=EDGE_CURVE('240[2]',#131,#131,#132,.T.);
#64=PRESENTATION_STYLE_ASSIGNMENT((#133));
#65=PRESENTATION_STYLE_ASSIGNMENT((#134));
#66=MANIFOLD_SOLID_BREP('240[2]',#135);
#67=PRESENTATION_STYLE_ASSIGNMENT((#136));
#68=EDGE_CURVE('240[2]',#137,#137,#138,.T.);
#69=PRESENTATION_STYLE_ASSIGNMENT((#139));
#70=EDGE_CURVE('240[2]',#128,#127,#140,.T.);
#71=PRESENTATION_STYLE_ASSIGNMENT((#141));
#72=EDGE_CURVE('240[2]',#142,#142,#143,.T.);
#73=PRESENTATION_STYLE_ASSIGNMENT((#144));
#74=PRESENTATION_STYLE_ASSIGNMENT((#145));
#75=ADVANCED_FACE('240[2]',(#146,#147),#148,.F.);
#76=PRODUCT('240[2]','240[2]','PART-240[2]-DESC',(#149));
#77=PRODUCT_DEFINITION('NONE','NONE',#150,#2);
#78=AXIS2_PLACEMENT_3D('',#151,#152,#153);
#81=LENGTH_MEASURE_WITH_UNIT(LENGTH_MEASURE(1.0),#154);
#84=DIMENSIONAL_EXPONENTS(1.0,0.0,0.0,0.0,0.0,0.0,0.0);
#86=DIMENSIONAL_EXPONENTS(0.0,0.0,0.0,0.0,0.0,0.0,0.0);
#92=SURFACE_STYLE_USAGE(.BOTH.,#155);
#93=CURVE_STYLE('',#156,POSITIVE_LENGTH_MEASURE(1000.0),#157);
#94=FACE_OUTER_BOUND('',#158,.T.);
#95=PLANE('',#159);
#96=CURVE_STYLE('',#160,POSITIVE_LENGTH_MEASURE(1000.0),#161);
#97=VERTEX_POINT('',#162);
#98=CIRCLE('',#163,9.0);
#99=SURFACE_STYLE_USAGE(.BOTH.,#164);
#100=CURVE_STYLE('',#165,POSITIVE_LENGTH_MEASURE(1000.0),#166);
#101=FACE_OUTER_BOUND('',#167,.T.);
#102=PLANE('',#168);
#103=SURFACE_STYLE_USAGE(.BOTH.,#169);
#104=CURVE_STYLE('',#170,POSITIVE_LENGTH_MEASURE(1000.0),#171);
#105=FACE_BOUND('',#172,.T.);
#106=FACE_OUTER_BOUND('',#173,.T.);
#107=PLANE('',#174);
#108=SURFACE_STYLE_USAGE(.BOTH.,#175);
#109=CURVE_STYLE('',#176,POSITIVE_LENGTH_MEASURE(1000.0),#177);
#110=FACE_OUTER_BOUND('',#178,.T.);
#111=PLANE('',#179);
#112=SURFACE_STYLE_USAGE(.BOTH.,#180);
#113=CURVE_STYLE('',#181,POSITIVE_LENGTH_MEASURE(1000.0),#182);
#114=FACE_BOUND('',#183,.T.);
#115=FACE_BOUND('',#184,.T.);
#116=CYLINDRICAL_SURFACE('',#185,9.0);
#117=SURFACE_STYLE_USAGE(.BOTH.,#186);
#118=CURVE_STYLE('',#187,POSITIVE_LENGTH_MEASURE(1000.0),#188);
#119=FACE_BOUND('',#189,.T.);
#120=FACE_BOUND('',#190,.T.);
#121=FACE_BOUND('',#191,.T.);
#122=CYLINDRICAL_SURFACE('',#192,15.5);
#123=CURVE_STYLE('',#193,POSITIVE_LENGTH_MEASURE(1000.0),#194);
#124=VERTEX_POINT('',#195);
#125=CIRCLE('',#196,15.5);
#126=CURVE_STYLE('',#197,POSITIVE_LENGTH_MEASURE(1000.0),#198);
#127=VERTEX_POINT('',#199);
#128=VERTEX_POINT('',#200);
#129=B_SPLINE_CURVE_WITH_KNOTS('',3,(#201,#202,#203,#204,#205,#206,#207,#208,#209,#210,#211,#212,#213,#214,#215,#216,#217,#218,#219,#220,#221,#222,#223,#224,#225,#226,#227,#228,#229,#230,#231,#232,#233,#234,#235,#236,#237,#238,#239,#240,#241,#242,#243,#244,#245,#246,#247,#248,#249,#250,#251,#252,#253,#254,#255,#256,#257,#258,#259,#260,#261,#262,#263,#264,#265,#266),.UNSPECIFIED.,.T.,.F.,(4,2,2,2,2,2,2,2,2,2,2,2,2,2,2,2,2,2,2,2,2,2,2,2,2,2,2,2,2,2,2,2,4),(0.0,0.5855826466298,1.1711652932596,1.7567479398894,2.3423305865192,2.92788042022871,3.51343025393821,4.09898008764772,4.68452992135723,5.27007975506674,5.85562958877625,6.44117942248575,7.02672925619526,7.61231190282506,8.19789454945486,8.78347719608466,9.36905984271446,9.95464248934426,10.5402251359741,11.1258077826039,11.7113904292337,12.2969402629432,12.8824900966527,13.4680399303622,14.0535897640717,14.6391395977812,15.2246894314907,15.8102392652002,16.3957890989097,16.9813717455395,17.5669543921693,18.1525370387991,18.7381196854289),.UNSPECIFIED.);
#130=CURVE_STYLE('',#267,POSITIVE_LENGTH_MEASURE(1000.0),#268);
#131=VERTEX_POINT('',#269);
#132=CIRCLE('',#270,3.1);
#133=SURFACE_STYLE_USAGE(.BOTH.,#271);
#134=CURVE_STYLE('',#272,POSITIVE_LENGTH_MEASURE(1000.0),#273);
#135=CLOSED_SHELL('',(#75,#40,#54,#51,#48,#57,#45));
#136=CURVE_STYLE('',#274,POSITIVE_LENGTH_MEASURE(1000.0),#275);
#137=VERTEX_POINT('',#276);
#138=CIRCLE('',#277,9.0);
#139=CURVE_STYLE('',#278,POSITIVE_LENGTH_MEASURE(1000.0),#279);
#140=B_SPLINE_CURVE_WITH_KNOTS('',3,(#280,#281,#282,#283,#284,#285,#286,#287,#288,#289,#290,#291,#292,#293,#294,#295,#296,#297,#298,#299,#300,#301,#302,#303,#304,#305,#306,#307,#308,#309,#310,#311,#312,#313,#314,#315,#316,#317,#318,#319,#320,#321,#322,#323,#324,#325,#326,#327,#328,#329,#330,#331,#332,#333,#334,#335,#336,#337,#338,#339,#340,#341,#342,#343,#344,#345),.UNSPECIFIED.,.T.,.F.,(4,2,2,2,2,2,2,2,2,2,2,2,2,2,2,2,2,2,2,2,2,2,2,2,2,2,2,2,2,2,2,2,4),(0.0,0.5855826466298,1.1711652932596,1.7567479398894,2.3423305865192,2.92788042022871,3.51343025393821,4.09898008764772,4.68452992135723,5.27007975506674,5.85562958877625,6.44117942248575,7.02672925619526,7.61231190282506,8.19789454945486,8.78347719608466,9.36905984271446,9.95464248934426,10.5402251359741,11.1258077826039,11.7113904292337,12.2969402629432,12.8824900966527,13.4680399303622,14.0535897640717,14.6391395977812,15.2246894314907,15.8102392652002,16.3957890989097,16.9813717455395,17.5669543921693,18.1525370387991,18.7381196854289),.UNSPECIFIED.);
#141=CURVE_STYLE('',#346,POSITIVE_LENGTH_MEASURE(1000.0),#347);
#142=VERTEX_POINT('',#348);
#143=CIRCLE('',#349,15.5);
#144=SURFACE_STYLE_USAGE(.BOTH.,#350);
#145=CURVE_STYLE('',#351,POSITIVE_LENGTH_MEASURE(1000.0),#352);
#146=FACE_BOUND('',#353,.T.);
#147=FACE_BOUND('',#354,.T.);
#148=CYLINDRICAL_SURFACE('',#355,3.1);
#149=PRODUCT_CONTEXT('',#25,'mechanical');
#150=PRODUCT_DEFINITION_FORMATION_WITH_SPECIFIED_SOURCE(' ','NONE',#76,.NOT_KNOWN.);
#151=CARTESIAN_POINT('',(0.0,0.0,0.0));
#152=DIRECTION('',(0.0,0.0,1.0));
#153=DIRECTION('',(1.0,0.0,0.0));
#154= (NAMED_UNIT(#84)LENGTH_UNIT()SI_UNIT(.MILLI.,.METRE.));
#155=SURFACE_SIDE_STYLE('',(#357));
#156=DRAUGHTING_PRE_DEFINED_CURVE_FONT('continuous');
#157=COLOUR_RGB('',0.501960813999176,0.501960813999176,0.501960813999176);
#158=EDGE_LOOP('',(#358));
#159=AXIS2_PLACEMENT_3D('',#359,#360,#361);
#160=DRAUGHTING_PRE_DEFINED_CURVE_FONT('continuous');
#161=COLOUR_RGB('',0.501960813999176,0.501960813999176,0.501960813999176);
#162=CARTESIAN_POINT('',(9.0,0.0,0.0));
#163=AXIS2_PLACEMENT_3D('',#362,#363,#364);
#164=SURFACE_SIDE_STYLE('',(#365));
#165=DRAUGHTING_PRE_DEFINED_CURVE_FONT('continuous');
#166=COLOUR_RGB('',0.501960813999176,0.501960813999176,0.501960813999176);
#167=EDGE_LOOP('',(#366));
#168=AXIS2_PLACEMENT_3D('',#367,#368,#369);
#169=SURFACE_SIDE_STYLE('',(#370));
#170=DRAUGHTING_PRE_DEFINED_CURVE_FONT('continuous');
#171=COLOUR_RGB('',0.501960813999176,0.501960813999176,0.501960813999176);
#172=EDGE_LOOP('',(#371));
#173=EDGE_LOOP('',(#372));
#174=AXIS2_PLACEMENT_3D('',#373,#374,#375);
#175=SURFACE_SIDE_STYLE('',(#376));
#176=DRAUGHTING_PRE_DEFINED_CURVE_FONT('continuous');
#177=COLOUR_RGB('',0.501960813999176,0.501960813999176,0.501960813999176);
#178=EDGE_LOOP('',(#377));
#179=AXIS2_PLACEMENT_3D('',#378,#379,#380);
#180=SURFACE_SIDE_STYLE('',(#381));
#181=DRAUGHTING_PRE_DEFINED_CURVE_FONT('continuous');
#182=COLOUR_RGB('',0.501960813999176,0.501960813999176,0.501960813999176);
#183=EDGE_LOOP('',(#382));
#184=EDGE_LOOP('',(#383));
#185=AXIS2_PLACEMENT_3D('',#384,#385,#386);
#186=SURFACE_SIDE_STYLE('',(#387));
#187=DRAUGHTING_PRE_DEFINED_CURVE_FONT('continuous');
#188=COLOUR_RGB('',0.501960813999176,0.501960813999176,0.501960813999176);
#189=EDGE_LOOP('',(#388,#389));
#190=EDGE_LOOP('',(#390));
#191=EDGE_LOOP('',(#391));
#192=AXIS2_PLACEMENT_3D('',#392,#393,#394);
#193=DRAUGHTING_PRE_DEFINED_CURVE_FONT('continuous');
#194=COLOUR_RGB('',0.501960813999176,0.501960813999176,0.501960813999176);
#195=CARTESIAN_POINT('',(-1.91052250483214E-031,15.5,1.8982025386784E-015));
#196=AXIS2_PLACEMENT_3D('',#395,#396,#397);
#197=DRAUGHTING_PRE_DEFINED_CURVE_FONT('continuous');
#198=COLOUR_RGB('',0.501960813999176,0.501960813999176,0.501960813999176);
#199=CARTESIAN_POINT('',(-2.1982410044695E-015,15.5,11.0999999999992));
#200=CARTESIAN_POINT('',(-2.95752201994086E-015,15.5,4.8999999999992));
#201=CARTESIAN_POINT('',(3.1,15.1868364052557,7.9999999999992));
#202=CARTESIAN_POINT('',(3.1,15.1868364052557,8.19519421554247));
#203=CARTESIAN_POINT('',(3.08126696905541,15.1907012625467,8.3968814827692));
#204=CARTESIAN_POINT('',(3.00255393971659,15.2064552352245,8.79774111453287));
#205=CARTESIAN_POINT('',(2.94259269995552,15.2183323000229,8.99691763579889));
#206=CARTESIAN_POINT('',(2.78424876312516,15.2480965497249,9.37864268899454));
#207=CARTESIAN_POINT('',(2.68574015614674,15.2659784517932,9.56150531588853));
#208=CARTESIAN_POINT('',(2.45830130164732,15.3042495074566,9.89954040476944));
#209=CARTESIAN_POINT('',(2.32935531923688,15.324599394954,10.0547067241189));
#210=CARTESIAN_POINT('',(2.05471441903904,15.363833809268,10.3293476243167));
#211=CARTESIAN_POINT('',(1.89955167038188,15.3841032027857,10.4582927541716));
#212=CARTESIAN_POINT('',(1.56151431957606,15.4220816017817,10.6857350658484));
#213=CARTESIAN_POINT('',(1.37864586449792,15.4397532832957,10.7842476143235));
#214=CARTESIAN_POINT('',(0.996909454068494,15.4690923264716,10.9425959253947));
#215=CARTESIAN_POINT('',(0.797727571773187,15.480757825878,11.0025575747224));
#216=CARTESIAN_POINT('',(0.396866504697317,15.4962166066334,11.0812689343459));
#217=CARTESIAN_POINT('',(0.195183277903166,15.5,11.0999999999992));
#218=CARTESIAN_POINT('',(-0.195183277903172,15.5,11.0999999999992));
#219=CARTESIAN_POINT('',(-0.396866504697323,15.4962166066334,11.0812689343459));
#220=CARTESIAN_POINT('',(-0.797727571773192,15.480757825878,11.0025575747224));
#221=CARTESIAN_POINT('',(-0.996909454068499,15.4690923264716,10.9425959253947));
#222=CARTESIAN_POINT('',(-1.37864586449793,15.4397532832957,10.7842476143235));
#223=CARTESIAN_POINT('',(-1.56151431957606,15.4220816017817,10.6857350658484));
#224=CARTESIAN_POINT('',(-1.89955167038188,15.3841032027857,10.4582927541716));
#225=CARTESIAN_POINT('',(-2.05471441903905,15.363833809268,10.3293476243167));
#226=CARTESIAN_POINT('',(-2.32935531923689,15.324599394954,10.0547067241189));
#227=CARTESIAN_POINT('',(-2.45830130164731,15.3042495074566,9.89954040476946));
#228=CARTESIAN_POINT('',(-2.68574015614674,15.2659784517932,9.56150531588854));
#229=CARTESIAN_POINT('',(-2.78424876312517,15.2480965497249,9.37864268899454));
#230=CARTESIAN_POINT('',(-2.94259269995553,15.2183323000229,8.99691763579889));
#231=CARTESIAN_POINT('',(-3.0025539397166,15.2064552352244,8.79774111453287));
#232=CARTESIAN_POINT('',(-3.08126696905541,15.1907012625467,8.3968814827692));
#233=CARTESIAN_POINT('',(-3.1,15.1868364052557,8.19519421554247));
#234=CARTESIAN_POINT('',(-3.1,15.1868364052557,7.80480578445594));
#235=CARTESIAN_POINT('',(-3.08126696905541,15.1907012625467,7.60311851722921));
#236=CARTESIAN_POINT('',(-3.0025539397166,15.2064552352244,7.20225888546554));
#237=CARTESIAN_POINT('',(-2.94259269995553,15.2183323000229,7.00308236419952));
#238=CARTESIAN_POINT('',(-2.78424876312517,15.2480965497249,6.62135731100386));
#239=CARTESIAN_POINT('',(-2.68574015614674,15.2659784517932,6.43849468410987));
#240=CARTESIAN_POINT('',(-2.45830130164732,15.3042495074566,6.10045959522895));
#241=CARTESIAN_POINT('',(-2.32935531923689,15.324599394954,5.94529327587949));
#242=CARTESIAN_POINT('',(-2.05471441903905,15.363833809268,5.67065237568165));
#243=CARTESIAN_POINT('',(-1.89955167038188,15.3841032027857,5.54170724582682));
#244=CARTESIAN_POINT('',(-1.56151431957606,15.4220816017817,5.31426493414996));
#245=CARTESIAN_POINT('',(-1.37864586449793,15.4397532832957,5.21575238567487));
#246=CARTESIAN_POINT('',(-0.996909454068497,15.4690923264716,5.0574040746037));
#247=CARTESIAN_POINT('',(-0.797727571773191,15.480757825878,4.997442425276));
#248=CARTESIAN_POINT('',(-0.396866504697322,15.4962166066334,4.9187310656525));
#249=CARTESIAN_POINT('',(-0.195183277903172,15.5,4.8999999999992));
#250=CARTESIAN_POINT('',(0.195183277903167,15.5,4.8999999999992));
#251=CARTESIAN_POINT('',(0.396866504697316,15.4962166066334,4.9187310656525));
#252=CARTESIAN_POINT('',(0.797727571773185,15.480757825878,4.997442425276));
#253=CARTESIAN_POINT('',(0.996909454068492,15.4690923264716,5.0574040746037));
#254=CARTESIAN_POINT('',(1.37864586449792,15.4397532832957,5.21575238567487));
#255=CARTESIAN_POINT('',(1.56151431957605,15.4220816017817,5.31426493414995));
#256=CARTESIAN_POINT('',(1.89955167038188,15.3841032027857,5.54170724582681));
#257=CARTESIAN_POINT('',(2.05471441903904,15.363833809268,5.67065237568165));
#258=CARTESIAN_POINT('',(2.32935531923689,15.324599394954,5.94529327587949));
#259=CARTESIAN_POINT('',(2.45830130164731,15.3042495074566,6.10045959522895));
#260=CARTESIAN_POINT('',(2.68574015614674,15.2659784517932,6.43849468410987));
#261=CARTESIAN_POINT('',(2.78424876312516,15.2480965497249,6.62135731100386));
#262=CARTESIAN_POINT('',(2.94259269995552,15.2183323000229,7.00308236419952));
#263=CARTESIAN_POINT('',(3.0025539397166,15.2064552352244,7.20225888546554));
#264=CARTESIAN_POINT('',(3.08126696905541,15.1907012625467,7.60311851722921));
#265=CARTESIAN_POINT('',(3.1,15.1868364052557,7.80480578445594));
#266=CARTESIAN_POINT('',(3.1,15.1868364052557,7.9999999999992));
#267=DRAUGHTING_PRE_DEFINED_CURVE_FONT('continuous');
#268=COLOUR_RGB('',0.501960813999176,0.501960813999176,0.501960813999176);
#269=CARTESIAN_POINT('',(3.1,15.0,7.9999999999992));
#270=AXIS2_PLACEMENT_3D('',#398,#399,#400);
#271=SURFACE_SIDE_STYLE('',(#401));
#272=DRAUGHTING_PRE_DEFINED_CURVE_FONT('continuous');
#273=COLOUR_RGB('',0.501960813999176,0.501960813999176,0.501960813999176);
#274=DRAUGHTING_PRE_DEFINED_CURVE_FONT('continuous');
#275=COLOUR_RGB('',0.501960813999176,0.501960813999176,0.501960813999176);
#276=CARTESIAN_POINT('',(9.0,0.0,22.0));
#277=AXIS2_PLACEMENT_3D('',#402,#403,#404);
#278=DRAUGHTING_PRE_DEFINED_CURVE_FONT('continuous');
#279=COLOUR_RGB('',0.501960813999176,0.501960813999176,0.501960813999176);
#280=CARTESIAN_POINT('',(3.1,15.1868364052557,7.9999999999992));
#281=CARTESIAN_POINT('',(3.1,15.1868364052557,8.19519421554247));
#282=CARTESIAN_POINT('',(3.08126696905541,15.1907012625467,8.3968814827692));
#283=CARTESIAN_POINT('',(3.00255393971659,15.2064552352245,8.79774111453287));
#284=CARTESIAN_POINT('',(2.94259269995552,15.2183323000229,8.99691763579889));
#285=CARTESIAN_POINT('',(2.78424876312516,15.2480965497249,9.37864268899454));
#286=CARTESIAN_POINT('',(2.68574015614674,15.2659784517932,9.56150531588853));
#287=CARTESIAN_POINT('',(2.45830130164732,15.3042495074566,9.89954040476944));
#288=CARTESIAN_POINT('',(2.32935531923688,15.324599394954,10.0547067241189));
#289=CARTESIAN_POINT('',(2.05471441903904,15.363833809268,10.3293476243167));
#290=CARTESIAN_POINT('',(1.89955167038188,15.3841032027857,10.4582927541716));
#291=CARTESIAN_POINT('',(1.56151431957606,15.4220816017817,10.6857350658484));
#292=CARTESIAN_POINT('',(1.37864586449792,15.4397532832957,10.7842476143235));
#293=CARTESIAN_POINT('',(0.996909454068494,15.4690923264716,10.9425959253947));
#294=CARTESIAN_POINT('',(0.797727571773187,15.480757825878,11.0025575747224));
#295=CARTESIAN_POINT('',(0.396866504697317,15.4962166066334,11.0812689343459));
#296=CARTESIAN_POINT('',(0.195183277903166,15.5,11.0999999999992));
#297=CARTESIAN_POINT('',(-0.195183277903172,15.5,11.0999999999992));
#298=CARTESIAN_POINT('',(-0.396866504697323,15.4962166066334,11.0812689343459));
#299=CARTESIAN_POINT('',(-0.797727571773192,15.480757825878,11.0025575747224));
#300=CARTESIAN_POINT('',(-0.996909454068499,15.4690923264716,10.9425959253947));
#301=CARTESIAN_POINT('',(-1.37864586449793,15.4397532832957,10.7842476143235));
#302=CARTESIAN_POINT('',(-1.56151431957606,15.4220816017817,10.6857350658484));
#303=CARTESIAN_POINT('',(-1.89955167038188,15.3841032027857,10.4582927541716));
#304=CARTESIAN_POINT('',(-2.05471441903905,15.363833809268,10.3293476243167));
#305=CARTESIAN_POINT('',(-2.32935531923689,15.324599394954,10.0547067241189));
#306=CARTESIAN_POINT('',(-2.45830130164731,15.3042495074566,9.89954040476946));
#307=CARTESIAN_POINT('',(-2.68574015614674,15.2659784517932,9.56150531588854));
#308=CARTESIAN_POINT('',(-2.78424876312517,15.2480965497249,9.37864268899454));
#309=CARTESIAN_POINT('',(-2.94259269995553,15.2183323000229,8.99691763579889));
#310=CARTESIAN_POINT('',(-3.0025539397166,15.2064552352244,8.79774111453287));
#311=CARTESIAN_POINT('',(-3.08126696905541,15.1907012625467,8.3968814827692));
#312=CARTESIAN_POINT('',(-3.1,15.1868364052557,8.19519421554247));
#313=CARTESIAN_POINT('',(-3.1,15.1868364052557,7.80480578445594));
#314=CARTESIAN_POINT('',(-3.08126696905541,15.1907012625467,7.60311851722921));
#315=CARTESIAN_POINT('',(-3.0025539397166,15.2064552352244,7.20225888546554));
#316=CARTESIAN_POINT('',(-2.94259269995553,15.2183323000229,7.00308236419952));
#317=CARTESIAN_POINT('',(-2.78424876312517,15.2480965497249,6.62135731100386));
#318=CARTESIAN_POINT('',(-2.68574015614674,15.2659784517932,6.43849468410987));
#319=CARTESIAN_POINT('',(-2.45830130164732,15.3042495074566,6.10045959522895));
#320=CARTESIAN_POINT('',(-2.32935531923689,15.324599394954,5.94529327587949));
#321=CARTESIAN_POINT('',(-2.05471441903905,15.363833809268,5.67065237568165));
#322=CARTESIAN_POINT('',(-1.89955167038188,15.3841032027857,5.54170724582682));
#323=CARTESIAN_POINT('',(-1.56151431957606,15.4220816017817,5.31426493414996));
#324=CARTESIAN_POINT('',(-1.37864586449793,15.4397532832957,5.21575238567487));
#325=CARTESIAN_POINT('',(-0.996909454068497,15.4690923264716,5.0574040746037));
#326=CARTESIAN_POINT('',(-0.797727571773191,15.480757825878,4.997442425276));
#327=CARTESIAN_POINT('',(-0.396866504697322,15.4962166066334,4.9187310656525));
#328=CARTESIAN_POINT('',(-0.195183277903172,15.5,4.8999999999992));
#329=CARTESIAN_POINT('',(0.195183277903167,15.5,4.8999999999992));
#330=CARTESIAN_POINT('',(0.396866504697316,15.4962166066334,4.9187310656525));
#331=CARTESIAN_POINT('',(0.797727571773185,15.480757825878,4.997442425276));
#332=CARTESIAN_POINT('',(0.996909454068492,15.4690923264716,5.0574040746037));
#333=CARTESIAN_POINT('',(1.37864586449792,15.4397532832957,5.21575238567487));
#334=CARTESIAN_POINT('',(1.56151431957605,15.4220816017817,5.31426493414995));
#335=CARTESIAN_POINT('',(1.89955167038188,15.3841032027857,5.54170724582681));
#336=CARTESIAN_POINT('',(2.05471441903904,15.363833809268,5.67065237568165));
#337=CARTESIAN_POINT('',(2.32935531923689,15.324599394954,5.94529327587949));
#338=CARTESIAN_POINT('',(2.45830130164731,15.3042495074566,6.10045959522895));
#339=CARTESIAN_POINT('',(2.68574015614674,15.2659784517932,6.43849468410987));
#340=CARTESIAN_POINT('',(2.78424876312516,15.2480965497249,6.62135731100386));
#341=CARTESIAN_POINT('',(2.94259269995552,15.2183323000229,7.00308236419952));
#342=CARTESIAN_POINT('',(3.0025539397166,15.2064552352244,7.20225888546554));
#343=CARTESIAN_POINT('',(3.08126696905541,15.1907012625467,7.60311851722921));
#344=CARTESIAN_POINT('',(3.1,15.1868364052557,7.80480578445594));
#345=CARTESIAN_POINT('',(3.1,15.1868364052557,7.9999999999992));
#346=DRAUGHTING_PRE_DEFINED_CURVE_FONT('continuous');
#347=COLOUR_RGB('',0.501960813999176,0.501960813999176,0.501960813999176);
#348=CARTESIAN_POINT('',(-1.22464679914735E-014,15.5,200.0));
#349=AXIS2_PLACEMENT_3D('',#405,#406,#407);
#350=SURFACE_SIDE_STYLE('',(#408));
#351=DRAUGHTING_PRE_DEFINED_CURVE_FONT('continuous');
#352=COLOUR_RGB('',0.501960813999176,0.501960813999176,0.501960813999176);
#353=EDGE_LOOP('',(#409,#410));
#354=EDGE_LOOP('',(#411));
#355=AXIS2_PLACEMENT_3D('',#412,#413,#414);
#357=SURFACE_STYLE_FILL_AREA(#415);
#358=ORIENTED_EDGE('',*,*,#63,.T.);
#359=CARTESIAN_POINT('',(0.549148004350074,15.0,4.9490269635208));
#360=DIRECTION('',(-0.0,1.0,0.0));
#361=DIRECTION('',(1.0,0.0,0.0));
#362=CARTESIAN_POINT('',(0.0,0.0,9.49101269339199E-016));
#363=DIRECTION('',(-6.12323399573677E-017,-1.22464679914735E-016,1.0));
#364=DIRECTION('',(1.0,-7.49879891330927E-033,6.12323399573677E-017));
#365=SURFACE_STYLE_FILL_AREA(#416);
#366=ORIENTED_EDGE('',*,*,#72,.T.);
#367=CARTESIAN_POINT('',(-1.22464679914735E-014,7.74999999999998,200.0));
#368=DIRECTION('',(-9.18338008663382E-049,-1.22464679914735E-016,1.0));
#369=DIRECTION('',(1.0,-7.49879891330927E-033,0.0));
#370=SURFACE_STYLE_FILL_AREA(#417);
#371=ORIENTED_EDGE('',*,*,#42,.T.);
#372=ORIENTED_EDGE('',*,*,#59,.F.);
#373=CARTESIAN_POINT('',(-9.55261252416069E-032,7.75,9.49101269339199E-016));
#374=DIRECTION('',(6.12323399573677E-017,1.22464679914735E-016,-1.0));
#375=DIRECTION('',(-1.0,0.0,-6.12323399573677E-017));
#376=SURFACE_STYLE_FILL_AREA(#418);
#377=ORIENTED_EDGE('',*,*,#68,.T.);
#378=CARTESIAN_POINT('',(1.59430065779055,8.85766365429217,22.0));
#379=DIRECTION('',(0.0,0.0,1.0));
#380=DIRECTION('',(1.0,0.0,0.0));
#381=SURFACE_STYLE_FILL_AREA(#419);
#382=ORIENTED_EDGE('',*,*,#68,.F.);
#383=ORIENTED_EDGE('',*,*,#42,.F.);
#384=CARTESIAN_POINT('',(0.0,0.0,0.0));
#385=DIRECTION('',(0.0,0.0,-1.0));
#386=DIRECTION('',(1.0,0.0,0.0));
#387=SURFACE_STYLE_FILL_AREA(#420);
#388=ORIENTED_EDGE('',*,*,#61,.T.);
#389=ORIENTED_EDGE('',*,*,#70,.T.);
#390=ORIENTED_EDGE('',*,*,#72,.F.);
#391=ORIENTED_EDGE('',*,*,#59,.T.);
#392=CARTESIAN_POINT('',(-6.12323399573676E-015,-1.22464679914735E-014,99.9999999999998));
#393=DIRECTION('',(6.12323399573677E-017,1.22464679914735E-016,-1.0));
#394=DIRECTION('',(-1.23259516440783E-032,1.0,1.22464679914735E-016));
#395=CARTESIAN_POINT('',(0.0,0.0,0.0));
#396=DIRECTION('',(-6.12323399573676E-017,-1.22464679914735E-016,1.0));
#397=DIRECTION('',(-1.23259516440783E-032,1.0,1.22464679914735E-016));
#398=CARTESIAN_POINT('',(-2.38806125833734E-015,15.0,7.9999999999992));
#399=DIRECTION('',(-0.0,1.0,0.0));
#400=DIRECTION('',(1.0,0.0,0.0));
#401=SURFACE_STYLE_FILL_AREA(#421);
#402=CARTESIAN_POINT('',(0.0,0.0,22.0));
#403=DIRECTION('',(0.0,0.0,-1.0));
#404=DIRECTION('',(1.0,0.0,0.0));
#405=CARTESIAN_POINT('',(-1.22464679914735E-014,-2.4492935982947E-014,200.0));
#406=DIRECTION('',(-6.12323399573677E-017,-1.22464679914735E-016,1.0));
#407=DIRECTION('',(-1.23259516440783E-032,1.0,1.22464679914735E-016));
#408=SURFACE_STYLE_FILL_AREA(#422);
#409=ORIENTED_EDGE('',*,*,#61,.F.);
#410=ORIENTED_EDGE('',*,*,#70,.F.);
#411=ORIENTED_EDGE('',*,*,#63,.F.);
#412=CARTESIAN_POINT('',(-2.38806125833734E-015,15.5,7.9999999999992));
#413=DIRECTION('',(-0.0,1.0,0.0));
#414=DIRECTION('',(1.0,0.0,0.0));
#415=FILL_AREA_STYLE('',(#423));
#416=FILL_AREA_STYLE('',(#424));
#417=FILL_AREA_STYLE('',(#425));
#418=FILL_AREA_STYLE('',(#426));
#419=FILL_AREA_STYLE('',(#427));
#420=FILL_AREA_STYLE('',(#428));
#421=FILL_AREA_STYLE('',(#429));
#422=FILL_AREA_STYLE('',(#430));
#423=FILL_AREA_STYLE_COLOUR('',#431);
#424=FILL_AREA_STYLE_COLOUR('',#432);
#425=FILL_AREA_STYLE_COLOUR('',#433);
#426=FILL_AREA_STYLE_COLOUR('',#434);
#427=FILL_AREA_STYLE_COLOUR('',#435);
#428=FILL_AREA_STYLE_COLOUR('',#436);
#429=FILL_AREA_STYLE_COLOUR('',#437);
#430=FILL_AREA_STYLE_COLOUR('',#438);
#431=COLOUR_RGB('',0.501960813999176,0.501960813999176,0.501960813999176);
#432=COLOUR_RGB('',0.501960813999176,0.501960813999176,0.501960813999176);
#433=COLOUR_RGB('',0.501960813999176,0.501960813999176,0.501960813999176);
#434=COLOUR_RGB('',0.501960813999176,0.501960813999176,0.501960813999176);
#435=COLOUR_RGB('',0.501960813999176,0.501960813999176,0.501960813999176);
#436=COLOUR_RGB('',0.501960813999176,0.501960813999176,0.501960813999176);
#437=COLOUR_RGB('',0.501960813999176,0.501960813999176,0.501960813999176);
#438=COLOUR_RGB('',0.501960813999176,0.501960813999176,0.501960813999176);
ENDSEC;
END-ISO-10303-21;
