ISO-10303-21;
HEADER;
FILE_DESCRIPTION((''),'1');
FILE_NAME('T:/00_BIG-HP\X2\FF71FF6FFF8CFF9F\X0\/2022_\X2\30C030A630F330ED30FC30C930C730FC30BF\X0\/02_STEP\X2\FF83FF9EFF70FF80\X0\/\X2\5207524A5DE55177\X0\/\X2\FF8AFF9EFF9853D6308A30FB976253D6308A30FBFF7EFF9DFF803082307F\X0\/06_C\X2\FF76FF6FFF80FF70\X0\/01_\X2\FF7DFF84FF9AFF70FF84FF7CFF6CFF9DFF78\X0\/\X2\5C5E6027590966F4\X0\/ST25-C1434C-60.stp','2022-10-25T06:05:27',(''),(''),'Spatial Interop R21 SP3','Kubotek KeyCreator 2011 V10.0.2 (22737)',' ');
FILE_SCHEMA(('automotive_design'));
ENDSEC;
DATA;
#1=MECHANICAL_DESIGN_GEOMETRIC_PRESENTATION_REPRESENTATION(' ',(#14,#15,#16,#17,#18,#19,#20,#21,#22,#23,#24,#25,#26,#27,#28,#29,#30,#31,#32,#33,#34,#35),#10);
#2=PRODUCT_DEFINITION_CONTEXT('',#36,'design');
#3=APPLICATION_PROTOCOL_DEFINITION('INTERNATIONAL STANDARD','automotive_design',1994,#36);
#4=PRODUCT_CATEGORY_RELATIONSHIP('NONE','NONE',#37,#38);
#5=SHAPE_DEFINITION_REPRESENTATION(#39,#40);
#6=PRODUCT_DEFINITION_CONTEXT('',#41,'design');
#7=APPLICATION_PROTOCOL_DEFINITION('INTERNATIONAL STANDARD','automotive_design',1994,#41);
#8=PRODUCT_CATEGORY_RELATIONSHIP('NONE','NONE',#42,#43);
#9=SHAPE_DEFINITION_REPRESENTATION(#44,#45);
#10= (GEOMETRIC_REPRESENTATION_CONTEXT(3)GLOBAL_UNCERTAINTY_ASSIGNED_CONTEXT((#48))GLOBAL_UNIT_ASSIGNED_CONTEXT((#50,#51,#52))REPRESENTATION_CONTEXT('NONE','WORKSPACE'));
#14=STYLED_ITEM('',(#54,#55),#56);
#15=STYLED_ITEM('',(#57),#58);
#16=STYLED_ITEM('',(#59),#60);
#17=STYLED_ITEM('',(#61,#62),#63);
#18=STYLED_ITEM('',(#64,#65),#66);
#19=STYLED_ITEM('',(#67),#68);
#20=STYLED_ITEM('',(#69),#70);
#21=STYLED_ITEM('',(#71,#72),#73);
#22=STYLED_ITEM('',(#74),#75);
#23=STYLED_ITEM('',(#76,#77),#78);
#24=STYLED_ITEM('',(#79,#80),#81);
#25=STYLED_ITEM('',(#82),#83);
#26=STYLED_ITEM('',(#84,#85),#86);
#27=STYLED_ITEM('',(#87,#88),#89);
#28=STYLED_ITEM('',(#90),#91);
#29=STYLED_ITEM('',(#92,#93),#94);
#30=STYLED_ITEM('',(#95,#96),#97);
#31=STYLED_ITEM('',(#98),#99);
#32=STYLED_ITEM('',(#100,#101),#102);
#33=STYLED_ITEM('',(#103),#104);
#34=STYLED_ITEM('',(#105,#106),#107);
#35=STYLED_ITEM('',(#108,#109),#110);
#36=APPLICATION_CONTEXT(' ');
#37=PRODUCT_CATEGORY('part','NONE');
#38=PRODUCT_RELATED_PRODUCT_CATEGORY('detail',' ',(#111));
#39=PRODUCT_DEFINITION_SHAPE('NONE','NONE',#112);
#40=ADVANCED_BREP_SHAPE_REPRESENTATION('241[3]',(#73,#113),#10);
#41=APPLICATION_CONTEXT(' ');
#42=PRODUCT_CATEGORY('part','NONE');
#43=PRODUCT_RELATED_PRODUCT_CATEGORY('detail',' ',(#114));
#44=PRODUCT_DEFINITION_SHAPE('NONE','NONE',#115);
#45=ADVANCED_BREP_SHAPE_REPRESENTATION('240[2]',(#94,#116),#10);
#48=UNCERTAINTY_MEASURE_WITH_UNIT(LENGTH_MEASURE(1.0E-006),#50,'','');
#50= (CONVERSION_BASED_UNIT('MILLIMETRE',#119)LENGTH_UNIT()NAMED_UNIT(#122));
#51= (NAMED_UNIT(#124)PLANE_ANGLE_UNIT()SI_UNIT($,.RADIAN.));
#52= (NAMED_UNIT(#124)SOLID_ANGLE_UNIT()SI_UNIT($,.STERADIAN.));
#54=PRESENTATION_STYLE_ASSIGNMENT((#130));
#55=PRESENTATION_STYLE_ASSIGNMENT((#131));
#56=ADVANCED_FACE('240[2]',(#132,#133),#134,.T.);
#57=PRESENTATION_STYLE_ASSIGNMENT((#135));
#58=EDGE_CURVE('240[2]',#136,#136,#137,.T.);
#59=PRESENTATION_STYLE_ASSIGNMENT((#138));
#60=EDGE_CURVE('240[2]',#139,#139,#140,.T.);
#61=PRESENTATION_STYLE_ASSIGNMENT((#141));
#62=PRESENTATION_STYLE_ASSIGNMENT((#142));
#63=ADVANCED_FACE('240[2]',(#143,#144),#145,.T.);
#64=PRESENTATION_STYLE_ASSIGNMENT((#146));
#65=PRESENTATION_STYLE_ASSIGNMENT((#147));
#66=ADVANCED_FACE('240[2]',(#148,#149),#150,.T.);
#67=PRESENTATION_STYLE_ASSIGNMENT((#151));
#68=EDGE_CURVE('240[2]',#152,#152,#153,.T.);
#69=PRESENTATION_STYLE_ASSIGNMENT((#154));
#70=EDGE_CURVE('240[2]',#155,#155,#156,.T.);
#71=PRESENTATION_STYLE_ASSIGNMENT((#157));
#72=PRESENTATION_STYLE_ASSIGNMENT((#158));
#73=MANIFOLD_SOLID_BREP('241[3]',#159);
#74=PRESENTATION_STYLE_ASSIGNMENT((#160));
#75=EDGE_CURVE('240[2]',#161,#161,#162,.T.);
#76=PRESENTATION_STYLE_ASSIGNMENT((#163));
#77=PRESENTATION_STYLE_ASSIGNMENT((#164));
#78=ADVANCED_FACE('240[2]',(#165,#166),#167,.T.);
#79=PRESENTATION_STYLE_ASSIGNMENT((#168));
#80=PRESENTATION_STYLE_ASSIGNMENT((#169));
#81=ADVANCED_FACE('240[2]',(#170,#171),#172,.T.);
#82=PRESENTATION_STYLE_ASSIGNMENT((#173));
#83=EDGE_CURVE('240[2]',#174,#174,#175,.T.);
#84=PRESENTATION_STYLE_ASSIGNMENT((#176));
#85=PRESENTATION_STYLE_ASSIGNMENT((#177));
#86=ADVANCED_FACE('240[2]',(#178),#179,.F.);
#87=PRESENTATION_STYLE_ASSIGNMENT((#180));
#88=PRESENTATION_STYLE_ASSIGNMENT((#181));
#89=ADVANCED_FACE('240[2]',(#182,#183),#184,.T.);
#90=PRESENTATION_STYLE_ASSIGNMENT((#185));
#91=EDGE_CURVE('240[2]',#186,#186,#187,.T.);
#92=PRESENTATION_STYLE_ASSIGNMENT((#188));
#93=PRESENTATION_STYLE_ASSIGNMENT((#189));
#94=MANIFOLD_SOLID_BREP('240[2]',#190);
#95=PRESENTATION_STYLE_ASSIGNMENT((#191));
#96=PRESENTATION_STYLE_ASSIGNMENT((#192));
#97=ADVANCED_FACE('241[3]',(#193,#194),#195,.T.);
#98=PRESENTATION_STYLE_ASSIGNMENT((#196));
#99=EDGE_CURVE('241[3]',#197,#197,#198,.T.);
#100=PRESENTATION_STYLE_ASSIGNMENT((#199));
#101=PRESENTATION_STYLE_ASSIGNMENT((#200));
#102=ADVANCED_FACE('241[3]',(#201),#202,.T.);
#103=PRESENTATION_STYLE_ASSIGNMENT((#203));
#104=EDGE_CURVE('241[3]',#204,#204,#205,.T.);
#105=PRESENTATION_STYLE_ASSIGNMENT((#206));
#106=PRESENTATION_STYLE_ASSIGNMENT((#207));
#107=ADVANCED_FACE('240[2]',(#208),#209,.T.);
#108=PRESENTATION_STYLE_ASSIGNMENT((#210));
#109=PRESENTATION_STYLE_ASSIGNMENT((#211));
#110=ADVANCED_FACE('241[3]',(#212),#213,.F.);
#111=PRODUCT('241[3]','241[3]','PART-241[3]-DESC',(#214));
#112=PRODUCT_DEFINITION('NONE','NONE',#215,#2);
#113=AXIS2_PLACEMENT_3D('',#216,#217,#218);
#114=PRODUCT('240[2]','240[2]','PART-240[2]-DESC',(#219));
#115=PRODUCT_DEFINITION('NONE','NONE',#220,#6);
#116=AXIS2_PLACEMENT_3D('',#221,#222,#223);
#119=LENGTH_MEASURE_WITH_UNIT(LENGTH_MEASURE(1.0),#224);
#122=DIMENSIONAL_EXPONENTS(1.0,0.0,0.0,0.0,0.0,0.0,0.0);
#124=DIMENSIONAL_EXPONENTS(0.0,0.0,0.0,0.0,0.0,0.0,0.0);
#130=SURFACE_STYLE_USAGE(.BOTH.,#225);
#131=CURVE_STYLE('',#226,POSITIVE_LENGTH_MEASURE(1000.0),#227);
#132=FACE_BOUND('',#228,.T.);
#133=FACE_BOUND('',#229,.T.);
#134=CYLINDRICAL_SURFACE('',#230,12.5);
#135=CURVE_STYLE('',#231,POSITIVE_LENGTH_MEASURE(1000.0),#232);
#136=VERTEX_POINT('',#233);
#137=CIRCLE('',#234,17.75026129618);
#138=CURVE_STYLE('',#235,POSITIVE_LENGTH_MEASURE(1000.0),#236);
#139=VERTEX_POINT('',#237);
#140=CIRCLE('',#238,19.0);
#141=SURFACE_STYLE_USAGE(.BOTH.,#239);
#142=CURVE_STYLE('',#240,POSITIVE_LENGTH_MEASURE(1000.0),#241);
#143=FACE_BOUND('',#242,.T.);
#144=FACE_BOUND('',#243,.T.);
#145=CONICAL_SURFACE('',#244,17.75026129618,0.558505360638669);
#146=SURFACE_STYLE_USAGE(.BOTH.,#245);
#147=CURVE_STYLE('',#246,POSITIVE_LENGTH_MEASURE(1000.0),#247);
#148=FACE_OUTER_BOUND('',#248,.T.);
#149=FACE_BOUND('',#249,.T.);
#150=PLANE('',#250);
#151=CURVE_STYLE('',#251,POSITIVE_LENGTH_MEASURE(1000.0),#252);
#152=VERTEX_POINT('',#253);
#153=CIRCLE('',#254,4.50250844334091);
#154=CURVE_STYLE('',#255,POSITIVE_LENGTH_MEASURE(1000.0),#256);
#155=VERTEX_POINT('',#257);
#156=CIRCLE('',#258,19.0);
#157=SURFACE_STYLE_USAGE(.BOTH.,#259);
#158=CURVE_STYLE('',#260,POSITIVE_LENGTH_MEASURE(1000.0),#261);
#159=CLOSED_SHELL('',(#110,#97,#102));
#160=CURVE_STYLE('',#262,POSITIVE_LENGTH_MEASURE(1000.0),#263);
#161=VERTEX_POINT('',#264);
#162=CIRCLE('',#265,16.5);
#163=SURFACE_STYLE_USAGE(.BOTH.,#266);
#164=CURVE_STYLE('',#267,POSITIVE_LENGTH_MEASURE(1000.0),#268);
#165=FACE_BOUND('',#269,.T.);
#166=FACE_BOUND('',#270,.T.);
#167=CONICAL_SURFACE('',#271,16.5,0.558505360638185);
#168=SURFACE_STYLE_USAGE(.BOTH.,#272);
#169=CURVE_STYLE('',#273,POSITIVE_LENGTH_MEASURE(1000.0),#274);
#170=FACE_BOUND('',#275,.T.);
#171=FACE_OUTER_BOUND('',#276,.T.);
#172=PLANE('',#277);
#173=CURVE_STYLE('',#278,POSITIVE_LENGTH_MEASURE(1000.0),#279);
#174=VERTEX_POINT('',#280);
#175=CIRCLE('',#281,12.5);
#176=SURFACE_STYLE_USAGE(.BOTH.,#282);
#177=CURVE_STYLE('',#283,POSITIVE_LENGTH_MEASURE(1000.0),#284);
#178=FACE_OUTER_BOUND('',#285,.T.);
#179=PLANE('',#286);
#180=SURFACE_STYLE_USAGE(.BOTH.,#287);
#181=CURVE_STYLE('',#288,POSITIVE_LENGTH_MEASURE(1000.0),#289);
#182=FACE_BOUND('',#290,.T.);
#183=FACE_BOUND('',#291,.T.);
#184=CYLINDRICAL_SURFACE('',#292,19.0);
#185=CURVE_STYLE('',#293,POSITIVE_LENGTH_MEASURE(1000.0),#294);
#186=VERTEX_POINT('',#295);
#187=CIRCLE('',#296,12.5);
#188=SURFACE_STYLE_USAGE(.BOTH.,#297);
#189=CURVE_STYLE('',#298,POSITIVE_LENGTH_MEASURE(1000.0),#299);
#190=CLOSED_SHELL('',(#78,#86,#63,#89,#81,#107,#56,#66));
#191=SURFACE_STYLE_USAGE(.BOTH.,#300);
#192=CURVE_STYLE('',#301,POSITIVE_LENGTH_MEASURE(1000.0),#302);
#193=FACE_BOUND('',#303,.T.);
#194=FACE_BOUND('',#304,.T.);
#195=CONICAL_SURFACE('',#305,11.9956265605957,0.523598775598276);
#196=CURVE_STYLE('',#306,POSITIVE_LENGTH_MEASURE(1000.0),#307);
#197=VERTEX_POINT('',#308);
#198=CIRCLE('',#309,6.38720232075574);
#199=SURFACE_STYLE_USAGE(.BOTH.,#310);
#200=CURVE_STYLE('',#311,POSITIVE_LENGTH_MEASURE(1000.0),#312);
#201=FACE_OUTER_BOUND('',#313,.T.);
#202=PLANE('',#314);
#203=CURVE_STYLE('',#315,POSITIVE_LENGTH_MEASURE(1000.0),#316);
#204=VERTEX_POINT('',#317);
#205=CIRCLE('',#318,17.5834930876383);
#206=SURFACE_STYLE_USAGE(.BOTH.,#319);
#207=CURVE_STYLE('',#320,POSITIVE_LENGTH_MEASURE(1000.0),#321);
#208=FACE_OUTER_BOUND('',#322,.T.);
#209=PLANE('',#323);
#210=SURFACE_STYLE_USAGE(.BOTH.,#324);
#211=CURVE_STYLE('',#325,POSITIVE_LENGTH_MEASURE(1000.0),#326);
#212=FACE_OUTER_BOUND('',#327,.T.);
#213=PLANE('',#328);
#214=PRODUCT_CONTEXT('',#36,'mechanical');
#215=PRODUCT_DEFINITION_FORMATION_WITH_SPECIFIED_SOURCE(' ','NONE',#111,.NOT_KNOWN.);
#216=CARTESIAN_POINT('',(0.0,0.0,0.0));
#217=DIRECTION('',(0.0,0.0,1.0));
#218=DIRECTION('',(1.0,0.0,0.0));
#219=PRODUCT_CONTEXT('',#41,'mechanical');
#220=PRODUCT_DEFINITION_FORMATION_WITH_SPECIFIED_SOURCE(' ','NONE',#114,.NOT_KNOWN.);
#221=CARTESIAN_POINT('',(0.0,0.0,0.0));
#222=DIRECTION('',(0.0,0.0,1.0));
#223=DIRECTION('',(1.0,0.0,0.0));
#224= (NAMED_UNIT(#122)LENGTH_UNIT()SI_UNIT(.MILLI.,.METRE.));
#225=SURFACE_SIDE_STYLE('',(#330));
#226=DRAUGHTING_PRE_DEFINED_CURVE_FONT('continuous');
#227=COLOUR_RGB('',0.501960813999176,0.501960813999176,0.501960813999176);
#228=EDGE_LOOP('',(#331));
#229=EDGE_LOOP('',(#332));
#230=AXIS2_PLACEMENT_3D('',#333,#334,#335);
#231=DRAUGHTING_PRE_DEFINED_CURVE_FONT('continuous');
#232=COLOUR_RGB('',0.501960813999176,0.501960813999176,0.501960813999176);
#233=CARTESIAN_POINT('',(-3.96997461442822E-015,17.75026129618,19.392544464556));
#234=AXIS2_PLACEMENT_3D('',#336,#337,#338);
#235=DRAUGHTING_PRE_DEFINED_CURVE_FONT('continuous');
#236=COLOUR_RGB('',0.501960813999176,0.501960813999176,0.501960813999176);
#237=CARTESIAN_POINT('',(5.30634371991352E-016,19.0,21.392544464556));
#238=AXIS2_PLACEMENT_3D('',#339,#340,#341);
#239=SURFACE_SIDE_STYLE('',(#342));
#240=DRAUGHTING_PRE_DEFINED_CURVE_FONT('continuous');
#241=COLOUR_RGB('',0.501960813999176,0.501960813999176,0.501960813999176);
#242=EDGE_LOOP('',(#343));
#243=EDGE_LOOP('',(#344));
#244=AXIS2_PLACEMENT_3D('',#345,#346,#347);
#245=SURFACE_SIDE_STYLE('',(#348));
#246=DRAUGHTING_PRE_DEFINED_CURVE_FONT('continuous');
#247=COLOUR_RGB('',0.501960813999176,0.501960813999176,0.501960813999176);
#248=EDGE_LOOP('',(#349));
#249=EDGE_LOOP('',(#350));
#250=AXIS2_PLACEMENT_3D('',#351,#352,#353);
#251=DRAUGHTING_PRE_DEFINED_CURVE_FONT('continuous');
#252=COLOUR_RGB('',0.501960813999176,0.501960813999176,0.501960813999176);
#253=CARTESIAN_POINT('',(4.50250844334091,-2.37490175058411E-015,0.192544464556001));
#254=AXIS2_PLACEMENT_3D('',#354,#355,#356);
#255=DRAUGHTING_PRE_DEFINED_CURVE_FONT('continuous');
#256=COLOUR_RGB('',0.501960813999176,0.501960813999176,0.501960813999176);
#257=CARTESIAN_POINT('',(-2.26531295359475E-015,19.0,36.9953680550499));
#258=AXIS2_PLACEMENT_3D('',#357,#358,#359);
#259=SURFACE_SIDE_STYLE('',(#360));
#260=DRAUGHTING_PRE_DEFINED_CURVE_FONT('continuous');
#261=COLOUR_RGB('',0.800000011920929,0.800000011920929,0.800000011920929);
#262=DRAUGHTING_PRE_DEFINED_CURVE_FONT('continuous');
#263=COLOUR_RGB('',0.501960813999176,0.501960813999176,0.501960813999176);
#264=CARTESIAN_POINT('',(16.5,-2.37490175058411E-015,19.392544464556));
#265=AXIS2_PLACEMENT_3D('',#361,#362,#363);
#266=SURFACE_SIDE_STYLE('',(#364));
#267=DRAUGHTING_PRE_DEFINED_CURVE_FONT('continuous');
#268=COLOUR_RGB('',0.501960813999176,0.501960813999176,0.501960813999176);
#269=EDGE_LOOP('',(#365));
#270=EDGE_LOOP('',(#366));
#271=AXIS2_PLACEMENT_3D('',#367,#368,#369);
#272=SURFACE_SIDE_STYLE('',(#370));
#273=DRAUGHTING_PRE_DEFINED_CURVE_FONT('continuous');
#274=COLOUR_RGB('',0.501960813999176,0.501960813999176,0.501960813999176);
#275=EDGE_LOOP('',(#371));
#276=EDGE_LOOP('',(#372));
#277=AXIS2_PLACEMENT_3D('',#373,#374,#375);
#278=DRAUGHTING_PRE_DEFINED_CURVE_FONT('continuous');
#279=COLOUR_RGB('',0.501960813999176,0.501960813999176,0.501960813999176);
#280=CARTESIAN_POINT('',(-6.55157675061049E-015,12.5,106.99536805505));
#281=AXIS2_PLACEMENT_3D('',#376,#377,#378);
#282=SURFACE_SIDE_STYLE('',(#379));
#283=DRAUGHTING_PRE_DEFINED_CURVE_FONT('continuous');
#284=COLOUR_RGB('',0.501960813999176,0.501960813999176,0.501960813999176);
#285=EDGE_LOOP('',(#380));
#286=AXIS2_PLACEMENT_3D('',#381,#382,#383);
#287=SURFACE_SIDE_STYLE('',(#384));
#288=DRAUGHTING_PRE_DEFINED_CURVE_FONT('continuous');
#289=COLOUR_RGB('',0.501960813999176,0.501960813999176,0.501960813999176);
#290=EDGE_LOOP('',(#385));
#291=EDGE_LOOP('',(#386));
#292=AXIS2_PLACEMENT_3D('',#387,#388,#389);
#293=DRAUGHTING_PRE_DEFINED_CURVE_FONT('continuous');
#294=COLOUR_RGB('',0.501960813999176,0.501960813999176,0.501960813999176);
#295=CARTESIAN_POINT('',(-2.26531295359467E-015,12.5,36.9953680550486));
#296=AXIS2_PLACEMENT_3D('',#390,#391,#392);
#297=SURFACE_SIDE_STYLE('',(#393));
#298=DRAUGHTING_PRE_DEFINED_CURVE_FONT('continuous');
#299=COLOUR_RGB('',0.501960813999176,0.501960813999176,0.501960813999176);
#300=SURFACE_SIDE_STYLE('',(#394));
#301=DRAUGHTING_PRE_DEFINED_CURVE_FONT('continuous');
#302=COLOUR_RGB('',0.800000011920929,0.800000011920929,0.800000011920929);
#303=EDGE_LOOP('',(#395));
#304=EDGE_LOOP('',(#396));
#305=AXIS2_PLACEMENT_3D('',#397,#398,#399);
#306=DRAUGHTING_PRE_DEFINED_CURVE_FONT('continuous');
#307=COLOUR_RGB('',0.800000011920929,0.800000011920929,0.800000011920929);
#308=CARTESIAN_POINT('',(0.0,6.38720232075575,0.0));
#309=AXIS2_PLACEMENT_3D('',#400,#401,#402);
#310=SURFACE_SIDE_STYLE('',(#403));
#311=DRAUGHTING_PRE_DEFINED_CURVE_FONT('continuous');
#312=COLOUR_RGB('',0.800000011920929,0.800000011920929,0.800000011920929);
#313=EDGE_LOOP('',(#404));
#314=AXIS2_PLACEMENT_3D('',#405,#406,#407);
#315=DRAUGHTING_PRE_DEFINED_CURVE_FONT('continuous');
#316=COLOUR_RGB('',0.800000011920929,0.800000011920929,0.800000011920929);
#317=CARTESIAN_POINT('',(-3.34080772805263E-015,-17.5834930876383,19.392544464556));
#318=AXIS2_PLACEMENT_3D('',#408,#409,#410);
#319=SURFACE_SIDE_STYLE('',(#411));
#320=DRAUGHTING_PRE_DEFINED_CURVE_FONT('continuous');
#321=COLOUR_RGB('',0.501960813999176,0.501960813999176,0.501960813999176);
#322=EDGE_LOOP('',(#412));
#323=AXIS2_PLACEMENT_3D('',#413,#414,#415);
#324=SURFACE_SIDE_STYLE('',(#416));
#325=DRAUGHTING_PRE_DEFINED_CURVE_FONT('continuous');
#326=COLOUR_RGB('',0.800000011920929,0.800000011920929,0.800000011920929);
#327=EDGE_LOOP('',(#417));
#328=AXIS2_PLACEMENT_3D('',#418,#419,#420);
#330=SURFACE_STYLE_FILL_AREA(#421);
#331=ORIENTED_EDGE('',*,*,#91,.F.);
#332=ORIENTED_EDGE('',*,*,#83,.T.);
#333=CARTESIAN_POINT('',(-4.40844485210258E-015,-8.81688970420516E-015,71.9953680550493));
#334=DIRECTION('',(-6.12323399573676E-017,-1.22464679914735E-016,1.0));
#335=DIRECTION('',(-1.23259516440783E-032,1.0,1.22464679914735E-016));
#336=CARTESIAN_POINT('',(-1.79619454638862E-015,-3.59238909277723E-015,19.392544464556));
#337=DIRECTION('',(0.0,0.0,1.0));
#338=DIRECTION('',(1.11105534174697E-032,-1.0,0.0));
#339=CARTESIAN_POINT('',(-1.79619454638862E-015,-3.59238909277723E-015,21.392544464556));
#340=DIRECTION('',(0.0,0.0,-1.0));
#341=DIRECTION('',(1.03797487529081E-032,-1.0,0.0));
#342=SURFACE_STYLE_FILL_AREA(#422);
#343=ORIENTED_EDGE('',*,*,#58,.T.);
#344=ORIENTED_EDGE('',*,*,#60,.T.);
#345=CARTESIAN_POINT('',(-1.79619454638862E-015,-3.59238909277723E-015,19.392544464556));
#346=DIRECTION('',(-0.0,-0.0,1.0));
#347=DIRECTION('',(1.11105534174697E-032,-1.0,0.0));
#348=SURFACE_STYLE_FILL_AREA(#423);
#349=ORIENTED_EDGE('',*,*,#70,.F.);
#350=ORIENTED_EDGE('',*,*,#91,.T.);
#351=CARTESIAN_POINT('',(-2.26531295359471E-015,15.75,36.9953680550492));
#352=DIRECTION('',(1.24574465667229E-029,-2.03445541610794E-013,1.0));
#353=DIRECTION('',(1.0,6.12323399573677E-017,0.0));
#354=CARTESIAN_POINT('',(-1.18745087529205E-015,-2.37490175058411E-015,0.192544464556001));
#355=DIRECTION('',(0.0,0.0,1.0));
#356=DIRECTION('',(1.0,0.0,0.0));
#357=CARTESIAN_POINT('',(-2.26531295359475E-015,-4.5306259071895E-015,36.9953680550499));
#358=DIRECTION('',(6.12323399573677E-017,1.22464679914735E-016,-1.0));
#359=DIRECTION('',(-1.23259516440783E-032,1.0,1.22464679914735E-016));
#360=SURFACE_STYLE_FILL_AREA(#424);
#361=CARTESIAN_POINT('',(-1.18745087529205E-015,-2.37490175058411E-015,19.392544464556));
#362=DIRECTION('',(0.0,0.0,1.0));
#363=DIRECTION('',(1.0,0.0,0.0));
#364=SURFACE_STYLE_FILL_AREA(#425);
#365=ORIENTED_EDGE('',*,*,#68,.T.);
#366=ORIENTED_EDGE('',*,*,#75,.F.);
#367=CARTESIAN_POINT('',(-1.18745087529205E-015,-2.37490175058411E-015,19.392544464556));
#368=DIRECTION('',(-0.0,-0.0,1.0));
#369=DIRECTION('',(1.0,0.0,0.0));
#370=SURFACE_STYLE_FILL_AREA(#426);
#371=ORIENTED_EDGE('',*,*,#75,.T.);
#372=ORIENTED_EDGE('',*,*,#58,.F.);
#373=CARTESIAN_POINT('',(3.45431809187951,-19.1916045842997,19.392544464556));
#374=DIRECTION('',(0.0,0.0,-1.0));
#375=DIRECTION('',(1.0,0.0,0.0));
#376=CARTESIAN_POINT('',(-6.55157675061049E-015,-1.3103153501221E-014,106.99536805505));
#377=DIRECTION('',(6.12323399573677E-017,1.22464679914735E-016,-1.0));
#378=DIRECTION('',(-1.23259516440783E-032,1.0,1.22464679914735E-016));
#379=SURFACE_STYLE_FILL_AREA(#427);
#380=ORIENTED_EDGE('',*,*,#68,.F.);
#381=CARTESIAN_POINT('',(2.92288453928266,16.239050032869,0.192544464556001));
#382=DIRECTION('',(0.0,0.0,1.0));
#383=DIRECTION('',(-1.0,0.0,0.0));
#384=SURFACE_STYLE_FILL_AREA(#428);
#385=ORIENTED_EDGE('',*,*,#70,.T.);
#386=ORIENTED_EDGE('',*,*,#60,.F.);
#387=CARTESIAN_POINT('',(-1.79619454638862E-015,-3.59238909277723E-015,29.3340830619768));
#388=DIRECTION('',(-6.12323399573677E-017,-1.22464679914735E-016,1.0));
#389=DIRECTION('',(-1.23259516440783E-032,1.0,1.22464679914735E-016));
#390=CARTESIAN_POINT('',(-2.26531295359467E-015,-4.53062590718934E-015,36.9953680550486));
#391=DIRECTION('',(6.12323399573677E-017,1.22464679914735E-016,-1.0));
#392=DIRECTION('',(-1.23259516440783E-032,1.0,1.22464679914735E-016));
#393=SURFACE_STYLE_FILL_AREA(#429);
#394=SURFACE_STYLE_FILL_AREA(#430);
#395=ORIENTED_EDGE('',*,*,#104,.T.);
#396=ORIENTED_EDGE('',*,*,#99,.F.);
#397=CARTESIAN_POINT('',(-5.9481558770391E-016,-1.18963117540783E-015,9.7140757338043));
#398=DIRECTION('',(-6.12323399573677E-017,-1.22464679914735E-016,1.0));
#399=DIRECTION('',(-1.23259516440783E-032,1.0,1.22464679914735E-016));
#400=CARTESIAN_POINT('',(0.0,0.0,0.0));
#401=DIRECTION('',(6.12323399573677E-017,1.22464679914735E-016,-1.0));
#402=DIRECTION('',(-1.23259516440783E-032,1.0,1.22464679914735E-016));
#403=SURFACE_STYLE_FILL_AREA(#431);
#404=ORIENTED_EDGE('',*,*,#99,.T.);
#405=CARTESIAN_POINT('',(0.0,3.19360116037788,0.0));
#406=DIRECTION('',(6.12323399573677E-017,1.22464679914735E-016,-1.0));
#407=DIRECTION('',(-1.0,0.0,-6.12323399573677E-017));
#408=CARTESIAN_POINT('',(-1.18745087529205E-015,-2.37490175058411E-015,19.392544464556));
#409=DIRECTION('',(0.0,0.0,-1.0));
#410=DIRECTION('',(-1.23259516440783E-032,1.0,0.0));
#411=SURFACE_STYLE_FILL_AREA(#432);
#412=ORIENTED_EDGE('',*,*,#83,.F.);
#413=CARTESIAN_POINT('',(-6.55157675061049E-015,6.24999999999999,106.99536805505));
#414=DIRECTION('',(7.49879891330927E-033,-1.22464679914735E-016,1.0));
#415=DIRECTION('',(1.0,6.12323399573677E-017,0.0));
#416=SURFACE_STYLE_FILL_AREA(#433);
#417=ORIENTED_EDGE('',*,*,#104,.F.);
#418=CARTESIAN_POINT('',(3.45431809187951,-19.1916045842997,19.392544464556));
#419=DIRECTION('',(0.0,0.0,-1.0));
#420=DIRECTION('',(0.0,-1.0,0.0));
#421=FILL_AREA_STYLE('',(#434));
#422=FILL_AREA_STYLE('',(#435));
#423=FILL_AREA_STYLE('',(#436));
#424=FILL_AREA_STYLE('',(#437));
#425=FILL_AREA_STYLE('',(#438));
#426=FILL_AREA_STYLE('',(#439));
#427=FILL_AREA_STYLE('',(#440));
#428=FILL_AREA_STYLE('',(#441));
#429=FILL_AREA_STYLE('',(#442));
#430=FILL_AREA_STYLE('',(#443));
#431=FILL_AREA_STYLE('',(#444));
#432=FILL_AREA_STYLE('',(#445));
#433=FILL_AREA_STYLE('',(#446));
#434=FILL_AREA_STYLE_COLOUR('',#447);
#435=FILL_AREA_STYLE_COLOUR('',#448);
#436=FILL_AREA_STYLE_COLOUR('',#449);
#437=FILL_AREA_STYLE_COLOUR('',#450);
#438=FILL_AREA_STYLE_COLOUR('',#451);
#439=FILL_AREA_STYLE_COLOUR('',#452);
#440=FILL_AREA_STYLE_COLOUR('',#453);
#441=FILL_AREA_STYLE_COLOUR('',#454);
#442=FILL_AREA_STYLE_COLOUR('',#455);
#443=FILL_AREA_STYLE_COLOUR('',#456);
#444=FILL_AREA_STYLE_COLOUR('',#457);
#445=FILL_AREA_STYLE_COLOUR('',#458);
#446=FILL_AREA_STYLE_COLOUR('',#459);
#447=COLOUR_RGB('',0.501960813999176,0.501960813999176,0.501960813999176);
#448=COLOUR_RGB('',0.501960813999176,0.501960813999176,0.501960813999176);
#449=COLOUR_RGB('',0.501960813999176,0.501960813999176,0.501960813999176);
#450=COLOUR_RGB('',0.800000011920929,0.800000011920929,0.800000011920929);
#451=COLOUR_RGB('',0.501960813999176,0.501960813999176,0.501960813999176);
#452=COLOUR_RGB('',0.501960813999176,0.501960813999176,0.501960813999176);
#453=COLOUR_RGB('',0.501960813999176,0.501960813999176,0.501960813999176);
#454=COLOUR_RGB('',0.501960813999176,0.501960813999176,0.501960813999176);
#455=COLOUR_RGB('',0.501960813999176,0.501960813999176,0.501960813999176);
#456=COLOUR_RGB('',0.800000011920929,0.800000011920929,0.800000011920929);
#457=COLOUR_RGB('',0.800000011920929,0.800000011920929,0.800000011920929);
#458=COLOUR_RGB('',0.501960813999176,0.501960813999176,0.501960813999176);
#459=COLOUR_RGB('',0.800000011920929,0.800000011920929,0.800000011920929);
ENDSEC;
END-ISO-10303-21;
