ISO-10303-21;
HEADER;
FILE_DESCRIPTION((''),'1');
FILE_NAME('T:/00_BIG-HP\X2\FF71FF6FFF8CFF9F\X0\/2022_\X2\30C030A630F330ED30FC30C930C730FC30BF\X0\/02_STEP\X2\FF83FF9EFF70FF80\X0\/\X2\5207524A5DE55177\X0\/\X2\FF8AFF9EFF9853D6308A30FB976253D6308A30FBFF7EFF9DFF803082307F\X0\/06_C\X2\FF76FF6FFF80FF70\X0\/01_\X2\FF7DFF84FF9AFF70FF84FF7CFF6CFF9DFF78\X0\/\X2\5C5E6027590966F4\X0\/ST25-C1040C.stp','2022-10-25T04:43:08',(''),(''),'Spatial Interop R21 SP3','Kubotek KeyCreator 2011 V10.0.2 (22737)',' ');
FILE_SCHEMA(('automotive_design'));
ENDSEC;
DATA;
#1=MECHANICAL_DESIGN_GEOMETRIC_PRESENTATION_REPRESENTATION(' ',(#14,#15,#16,#17,#18,#19,#20,#21,#22,#23,#24,#25,#26,#27,#28,#29,#30,#31,#32,#33,#34,#35,#36,#37),#10);
#2=PRODUCT_DEFINITION_CONTEXT('',#38,'design');
#3=APPLICATION_PROTOCOL_DEFINITION('INTERNATIONAL STANDARD','automotive_design',1994,#38);
#4=PRODUCT_CATEGORY_RELATIONSHIP('NONE','NONE',#39,#40);
#5=SHAPE_DEFINITION_REPRESENTATION(#41,#42);
#6=PRODUCT_DEFINITION_CONTEXT('',#43,'design');
#7=APPLICATION_PROTOCOL_DEFINITION('INTERNATIONAL STANDARD','automotive_design',1994,#43);
#8=PRODUCT_CATEGORY_RELATIONSHIP('NONE','NONE',#44,#45);
#9=SHAPE_DEFINITION_REPRESENTATION(#46,#47);
#10= (GEOMETRIC_REPRESENTATION_CONTEXT(3)GLOBAL_UNCERTAINTY_ASSIGNED_CONTEXT((#50))GLOBAL_UNIT_ASSIGNED_CONTEXT((#52,#53,#54))REPRESENTATION_CONTEXT('NONE','WORKSPACE'));
#14=STYLED_ITEM('',(#56),#57);
#15=STYLED_ITEM('',(#58,#59),#60);
#16=STYLED_ITEM('',(#61,#62),#63);
#17=STYLED_ITEM('',(#64),#65);
#18=STYLED_ITEM('',(#66,#67),#68);
#19=STYLED_ITEM('',(#69,#70),#71);
#20=STYLED_ITEM('',(#72,#73),#74);
#21=STYLED_ITEM('',(#75,#76),#77);
#22=STYLED_ITEM('',(#78),#79);
#23=STYLED_ITEM('',(#80),#81);
#24=STYLED_ITEM('',(#82,#83),#84);
#25=STYLED_ITEM('',(#85),#86);
#26=STYLED_ITEM('',(#87,#88),#89);
#27=STYLED_ITEM('',(#90,#91),#92);
#28=STYLED_ITEM('',(#93,#94),#95);
#29=STYLED_ITEM('',(#96,#97),#98);
#30=STYLED_ITEM('',(#99,#100),#101);
#31=STYLED_ITEM('',(#102,#103),#104);
#32=STYLED_ITEM('',(#105),#106);
#33=STYLED_ITEM('',(#107,#108),#109);
#34=STYLED_ITEM('',(#110),#111);
#35=STYLED_ITEM('',(#112),#113);
#36=STYLED_ITEM('',(#114),#115);
#37=STYLED_ITEM('',(#116),#117);
#38=APPLICATION_CONTEXT(' ');
#39=PRODUCT_CATEGORY('part','NONE');
#40=PRODUCT_RELATED_PRODUCT_CATEGORY('detail',' ',(#118));
#41=PRODUCT_DEFINITION_SHAPE('NONE','NONE',#119);
#42=ADVANCED_BREP_SHAPE_REPRESENTATION('241[3]',(#95,#120),#10);
#43=APPLICATION_CONTEXT(' ');
#44=PRODUCT_CATEGORY('part','NONE');
#45=PRODUCT_RELATED_PRODUCT_CATEGORY('detail',' ',(#121));
#46=PRODUCT_DEFINITION_SHAPE('NONE','NONE',#122);
#47=ADVANCED_BREP_SHAPE_REPRESENTATION('240[2]',(#84,#123),#10);
#50=UNCERTAINTY_MEASURE_WITH_UNIT(LENGTH_MEASURE(1.0E-006),#52,'','');
#52= (CONVERSION_BASED_UNIT('MILLIMETRE',#126)LENGTH_UNIT()NAMED_UNIT(#129));
#53= (NAMED_UNIT(#131)PLANE_ANGLE_UNIT()SI_UNIT($,.RADIAN.));
#54= (NAMED_UNIT(#131)SOLID_ANGLE_UNIT()SI_UNIT($,.STERADIAN.));
#56=PRESENTATION_STYLE_ASSIGNMENT((#137));
#57=EDGE_CURVE('240[2]',#138,#138,#139,.T.);
#58=PRESENTATION_STYLE_ASSIGNMENT((#140));
#59=PRESENTATION_STYLE_ASSIGNMENT((#141));
#60=ADVANCED_FACE('240[2]',(#142,#143),#144,.T.);
#61=PRESENTATION_STYLE_ASSIGNMENT((#145));
#62=PRESENTATION_STYLE_ASSIGNMENT((#146));
#63=ADVANCED_FACE('241[3]',(#147,#148),#149,.T.);
#64=PRESENTATION_STYLE_ASSIGNMENT((#150));
#65=EDGE_CURVE('241[3]',#151,#151,#152,.T.);
#66=PRESENTATION_STYLE_ASSIGNMENT((#153));
#67=PRESENTATION_STYLE_ASSIGNMENT((#154));
#68=ADVANCED_FACE('240[2]',(#155),#156,.F.);
#69=PRESENTATION_STYLE_ASSIGNMENT((#157));
#70=PRESENTATION_STYLE_ASSIGNMENT((#158));
#71=ADVANCED_FACE('241[3]',(#159),#160,.T.);
#72=PRESENTATION_STYLE_ASSIGNMENT((#161));
#73=PRESENTATION_STYLE_ASSIGNMENT((#162));
#74=ADVANCED_FACE('241[3]',(#163,#164),#165,.T.);
#75=PRESENTATION_STYLE_ASSIGNMENT((#166));
#76=PRESENTATION_STYLE_ASSIGNMENT((#167));
#77=ADVANCED_FACE('240[2]',(#168,#169),#170,.T.);
#78=PRESENTATION_STYLE_ASSIGNMENT((#171));
#79=EDGE_CURVE('240[2]',#172,#172,#173,.T.);
#80=PRESENTATION_STYLE_ASSIGNMENT((#174));
#81=EDGE_CURVE('240[2]',#175,#175,#176,.T.);
#82=PRESENTATION_STYLE_ASSIGNMENT((#177));
#83=PRESENTATION_STYLE_ASSIGNMENT((#178));
#84=MANIFOLD_SOLID_BREP('240[2]',#179);
#85=PRESENTATION_STYLE_ASSIGNMENT((#180));
#86=EDGE_CURVE('240[2]',#181,#181,#182,.T.);
#87=PRESENTATION_STYLE_ASSIGNMENT((#183));
#88=PRESENTATION_STYLE_ASSIGNMENT((#184));
#89=ADVANCED_FACE('240[2]',(#185,#186),#187,.T.);
#90=PRESENTATION_STYLE_ASSIGNMENT((#188));
#91=PRESENTATION_STYLE_ASSIGNMENT((#189));
#92=ADVANCED_FACE('241[3]',(#190),#191,.T.);
#93=PRESENTATION_STYLE_ASSIGNMENT((#192));
#94=PRESENTATION_STYLE_ASSIGNMENT((#193));
#95=MANIFOLD_SOLID_BREP('241[3]',#194);
#96=PRESENTATION_STYLE_ASSIGNMENT((#195));
#97=PRESENTATION_STYLE_ASSIGNMENT((#196));
#98=ADVANCED_FACE('240[2]',(#197,#198),#199,.T.);
#99=PRESENTATION_STYLE_ASSIGNMENT((#200));
#100=PRESENTATION_STYLE_ASSIGNMENT((#201));
#101=ADVANCED_FACE('240[2]',(#202,#203),#204,.T.);
#102=PRESENTATION_STYLE_ASSIGNMENT((#205));
#103=PRESENTATION_STYLE_ASSIGNMENT((#206));
#104=ADVANCED_FACE('240[2]',(#207,#208),#209,.T.);
#105=PRESENTATION_STYLE_ASSIGNMENT((#210));
#106=EDGE_CURVE('240[2]',#211,#211,#212,.T.);
#107=PRESENTATION_STYLE_ASSIGNMENT((#213));
#108=PRESENTATION_STYLE_ASSIGNMENT((#214));
#109=ADVANCED_FACE('240[2]',(#215),#216,.T.);
#110=PRESENTATION_STYLE_ASSIGNMENT((#217));
#111=EDGE_CURVE('240[2]',#218,#218,#219,.F.);
#112=PRESENTATION_STYLE_ASSIGNMENT((#220));
#113=EDGE_CURVE('241[3]',#221,#221,#222,.T.);
#114=PRESENTATION_STYLE_ASSIGNMENT((#223));
#115=EDGE_CURVE('240[2]',#224,#224,#225,.T.);
#116=PRESENTATION_STYLE_ASSIGNMENT((#226));
#117=EDGE_CURVE('241[3]',#227,#227,#228,.T.);
#118=PRODUCT('241[3]','241[3]','PART-241[3]-DESC',(#229));
#119=PRODUCT_DEFINITION('NONE','NONE',#230,#2);
#120=AXIS2_PLACEMENT_3D('',#231,#232,#233);
#121=PRODUCT('240[2]','240[2]','PART-240[2]-DESC',(#234));
#122=PRODUCT_DEFINITION('NONE','NONE',#235,#6);
#123=AXIS2_PLACEMENT_3D('',#236,#237,#238);
#126=LENGTH_MEASURE_WITH_UNIT(LENGTH_MEASURE(1.0),#239);
#129=DIMENSIONAL_EXPONENTS(1.0,0.0,0.0,0.0,0.0,0.0,0.0);
#131=DIMENSIONAL_EXPONENTS(0.0,0.0,0.0,0.0,0.0,0.0,0.0);
#137=CURVE_STYLE('',#240,POSITIVE_LENGTH_MEASURE(1000.0),#241);
#138=VERTEX_POINT('',#242);
#139=CIRCLE('',#243,12.5);
#140=SURFACE_STYLE_USAGE(.BOTH.,#244);
#141=CURVE_STYLE('',#245,POSITIVE_LENGTH_MEASURE(1000.0),#246);
#142=FACE_BOUND('',#247,.T.);
#143=FACE_BOUND('',#248,.T.);
#144=CONICAL_SURFACE('',#249,20.7499997578351,0.5235987755983);
#145=SURFACE_STYLE_USAGE(.BOTH.,#250);
#146=CURVE_STYLE('',#251,POSITIVE_LENGTH_MEASURE(1000.0),#252);
#147=FACE_BOUND('',#253,.T.);
#148=FACE_BOUND('',#254,.T.);
#149=CONICAL_SURFACE('',#255,12.6560683489107,0.785397558969608);
#150=CURVE_STYLE('',#256,POSITIVE_LENGTH_MEASURE(1000.0),#257);
#151=VERTEX_POINT('',#258);
#152=CIRCLE('',#259,20.6651285561955);
#153=SURFACE_STYLE_USAGE(.BOTH.,#260);
#154=CURVE_STYLE('',#261,POSITIVE_LENGTH_MEASURE(1000.0),#262);
#155=FACE_OUTER_BOUND('',#263,.T.);
#156=PLANE('',#264);
#157=SURFACE_STYLE_USAGE(.BOTH.,#265);
#158=CURVE_STYLE('',#266,POSITIVE_LENGTH_MEASURE(1000.0),#267);
#159=FACE_OUTER_BOUND('',#268,.T.);
#160=PLANE('',#269);
#161=SURFACE_STYLE_USAGE(.BOTH.,#270);
#162=CURVE_STYLE('',#271,POSITIVE_LENGTH_MEASURE(1000.0),#272);
#163=FACE_BOUND('',#273,.T.);
#164=FACE_BOUND('',#274,.T.);
#165=CONICAL_SURFACE('',#275,20.6333307898097,0.174532972537204);
#166=SURFACE_STYLE_USAGE(.BOTH.,#276);
#167=CURVE_STYLE('',#277,POSITIVE_LENGTH_MEASURE(1000.0),#278);
#168=FACE_BOUND('',#279,.T.);
#169=FACE_BOUND('',#280,.T.);
#170=CONICAL_SURFACE('',#281,21.550766269547,0.785397575516347);
#171=CURVE_STYLE('',#282,POSITIVE_LENGTH_MEASURE(1000.0),#283);
#172=VERTEX_POINT('',#284);
#173=CIRCLE('',#285,22.4999995156702);
#174=CURVE_STYLE('',#286,POSITIVE_LENGTH_MEASURE(1000.0),#287);
#175=VERTEX_POINT('',#288);
#176=CIRCLE('',#289,22.4999995156702);
#177=SURFACE_STYLE_USAGE(.BOTH.,#290);
#178=CURVE_STYLE('',#291,POSITIVE_LENGTH_MEASURE(1000.0),#292);
#179=CLOSED_SHELL('',(#68,#109,#101,#104,#89,#60,#98,#77));
#180=CURVE_STYLE('',#293,POSITIVE_LENGTH_MEASURE(1000.0),#294);
#181=VERTEX_POINT('',#295);
#182=CIRCLE('',#296,19.0);
#183=SURFACE_STYLE_USAGE(.BOTH.,#297);
#184=CURVE_STYLE('',#298,POSITIVE_LENGTH_MEASURE(1000.0),#299);
#185=FACE_BOUND('',#300,.T.);
#186=FACE_BOUND('',#301,.T.);
#187=CYLINDRICAL_SURFACE('',#302,19.0);
#188=SURFACE_STYLE_USAGE(.BOTH.,#303);
#189=CURVE_STYLE('',#304,POSITIVE_LENGTH_MEASURE(1000.0),#305);
#190=FACE_OUTER_BOUND('',#306,.T.);
#191=PLANE('',#307);
#192=SURFACE_STYLE_USAGE(.BOTH.,#308);
#193=CURVE_STYLE('',#309,POSITIVE_LENGTH_MEASURE(1000.0),#310);
#194=CLOSED_SHELL('',(#92,#74,#63,#71));
#195=SURFACE_STYLE_USAGE(.BOTH.,#311);
#196=CURVE_STYLE('',#312,POSITIVE_LENGTH_MEASURE(1000.0),#313);
#197=FACE_BOUND('',#314,.T.);
#198=FACE_BOUND('',#315,.T.);
#199=CYLINDRICAL_SURFACE('',#316,22.4999995156702);
#200=SURFACE_STYLE_USAGE(.BOTH.,#317);
#201=CURVE_STYLE('',#318,POSITIVE_LENGTH_MEASURE(1000.0),#319);
#202=FACE_BOUND('',#320,.T.);
#203=FACE_BOUND('',#321,.T.);
#204=CYLINDRICAL_SURFACE('',#322,12.5);
#205=SURFACE_STYLE_USAGE(.BOTH.,#323);
#206=CURVE_STYLE('',#324,POSITIVE_LENGTH_MEASURE(1000.0),#325);
#207=FACE_OUTER_BOUND('',#326,.T.);
#208=FACE_BOUND('',#327,.T.);
#209=PLANE('',#328);
#210=CURVE_STYLE('',#329,POSITIVE_LENGTH_MEASURE(1000.0),#330);
#211=VERTEX_POINT('',#331);
#212=CIRCLE('',#332,12.5);
#213=SURFACE_STYLE_USAGE(.BOTH.,#333);
#214=CURVE_STYLE('',#334,POSITIVE_LENGTH_MEASURE(1000.0),#335);
#215=FACE_OUTER_BOUND('',#336,.T.);
#216=PLANE('',#337);
#217=CURVE_STYLE('',#338,POSITIVE_LENGTH_MEASURE(1000.0),#339);
#218=VERTEX_POINT('',#340);
#219=CIRCLE('',#341,4.42155204724508);
#220=CURVE_STYLE('',#342,POSITIVE_LENGTH_MEASURE(1000.0),#343);
#221=VERTEX_POINT('',#344);
#222=CIRCLE('',#345,4.64700814162579);
#223=CURVE_STYLE('',#346,POSITIVE_LENGTH_MEASURE(1000.0),#347);
#224=VERTEX_POINT('',#348);
#225=CIRCLE('',#349,19.0);
#226=CURVE_STYLE('',#350,POSITIVE_LENGTH_MEASURE(1000.0),#351);
#227=VERTEX_POINT('',#352);
#228=CIRCLE('',#353,20.6015330234239);
#229=PRODUCT_CONTEXT('',#38,'mechanical');
#230=PRODUCT_DEFINITION_FORMATION_WITH_SPECIFIED_SOURCE(' ','NONE',#118,.NOT_KNOWN.);
#231=CARTESIAN_POINT('',(0.0,0.0,0.0));
#232=DIRECTION('',(0.0,0.0,1.0));
#233=DIRECTION('',(1.0,0.0,0.0));
#234=PRODUCT_CONTEXT('',#43,'mechanical');
#235=PRODUCT_DEFINITION_FORMATION_WITH_SPECIFIED_SOURCE(' ','NONE',#121,.NOT_KNOWN.);
#236=CARTESIAN_POINT('',(0.0,0.0,0.0));
#237=DIRECTION('',(0.0,0.0,1.0));
#238=DIRECTION('',(1.0,0.0,0.0));
#239= (NAMED_UNIT(#129)LENGTH_UNIT()SI_UNIT(.MILLI.,.METRE.));
#240=DRAUGHTING_PRE_DEFINED_CURVE_FONT('continuous');
#241=COLOUR_RGB('',0.501960813999176,0.501960813999176,0.501960813999176);
#242=CARTESIAN_POINT('',(-2.14313189850788E-015,12.5,35.0000000000002));
#243=AXIS2_PLACEMENT_3D('',#355,#356,#357);
#244=SURFACE_SIDE_STYLE('',(#358));
#245=DRAUGHTING_PRE_DEFINED_CURVE_FONT('continuous');
#246=COLOUR_RGB('',0.501960813999176,0.501960813999176,0.501960813999176);
#247=EDGE_LOOP('',(#359));
#248=EDGE_LOOP('',(#360));
#249=AXIS2_PLACEMENT_3D('',#361,#362,#363);
#250=SURFACE_SIDE_STYLE('',(#364));
#251=DRAUGHTING_PRE_DEFINED_CURVE_FONT('continuous');
#252=COLOUR_RGB('',0.800000011920929,0.800000011920929,0.800000011920929);
#253=EDGE_LOOP('',(#365));
#254=EDGE_LOOP('',(#366));
#255=AXIS2_PLACEMENT_3D('',#367,#368,#369);
#256=DRAUGHTING_PRE_DEFINED_CURVE_FONT('continuous');
#257=COLOUR_RGB('',0.800000011920929,0.800000011920929,0.800000011920929);
#258=CARTESIAN_POINT('',(-9.8082818038199E-016,20.6651285561955,16.0181397781773));
#259=AXIS2_PLACEMENT_3D('',#370,#371,#372);
#260=SURFACE_SIDE_STYLE('',(#373));
#261=DRAUGHTING_PRE_DEFINED_CURVE_FONT('continuous');
#262=COLOUR_RGB('',0.501960813999176,0.501960813999176,0.501960813999176);
#263=EDGE_LOOP('',(#374));
#264=AXIS2_PLACEMENT_3D('',#375,#376,#377);
#265=SURFACE_SIDE_STYLE('',(#378));
#266=DRAUGHTING_PRE_DEFINED_CURVE_FONT('continuous');
#267=COLOUR_RGB('',0.800000011920929,0.800000011920929,0.800000011920929);
#268=EDGE_LOOP('',(#379));
#269=AXIS2_PLACEMENT_3D('',#380,#381,#382);
#270=SURFACE_SIDE_STYLE('',(#383));
#271=DRAUGHTING_PRE_DEFINED_CURVE_FONT('continuous');
#272=COLOUR_RGB('',0.800000011920929,0.800000011920929,0.800000011920929);
#273=EDGE_LOOP('',(#384));
#274=EDGE_LOOP('',(#385));
#275=AXIS2_PLACEMENT_3D('',#386,#387,#388);
#276=SURFACE_SIDE_STYLE('',(#389));
#277=DRAUGHTING_PRE_DEFINED_CURVE_FONT('continuous');
#278=COLOUR_RGB('',0.501960813999176,0.501960813999176,0.501960813999176);
#279=EDGE_LOOP('',(#390));
#280=EDGE_LOOP('',(#391));
#281=AXIS2_PLACEMENT_3D('',#392,#393,#394);
#282=DRAUGHTING_PRE_DEFINED_CURVE_FONT('continuous');
#283=COLOUR_RGB('',0.501960813999176,0.501960813999176,0.501960813999176);
#284=CARTESIAN_POINT('',(-1.55149419247445E-015,22.4999995156702,25.3378230123928));
#285=AXIS2_PLACEMENT_3D('',#395,#396,#397);
#286=DRAUGHTING_PRE_DEFINED_CURVE_FONT('continuous');
#287=COLOUR_RGB('',0.501960813999176,0.501960813999176,0.501960813999176);
#288=CARTESIAN_POINT('',(-1.11916041374859E-015,22.4999995156702,18.2772765915493));
#289=AXIS2_PLACEMENT_3D('',#398,#399,#400);
#290=SURFACE_SIDE_STYLE('',(#401));
#291=DRAUGHTING_PRE_DEFINED_CURVE_FONT('continuous');
#292=COLOUR_RGB('',0.501960813999176,0.501960813999176,0.501960813999176);
#293=DRAUGHTING_PRE_DEFINED_CURVE_FONT('continuous');
#294=COLOUR_RGB('',0.501960813999176,0.501960813999176,0.501960813999176);
#295=CARTESIAN_POINT('',(-1.92269547466135E-015,19.0,31.4));
#296=AXIS2_PLACEMENT_3D('',#402,#403,#404);
#297=SURFACE_SIDE_STYLE('',(#405));
#298=DRAUGHTING_PRE_DEFINED_CURVE_FONT('continuous');
#299=COLOUR_RGB('',0.501960813999176,0.501960813999176,0.501960813999176);
#300=EDGE_LOOP('',(#406));
#301=EDGE_LOOP('',(#407));
#302=AXIS2_PLACEMENT_3D('',#408,#409,#410);
#303=SURFACE_SIDE_STYLE('',(#411));
#304=DRAUGHTING_PRE_DEFINED_CURVE_FONT('continuous');
#305=COLOUR_RGB('',0.800000011920929,0.800000011920929,0.800000011920929);
#306=EDGE_LOOP('',(#412));
#307=AXIS2_PLACEMENT_3D('',#413,#414,#415);
#308=SURFACE_SIDE_STYLE('',(#416));
#309=DRAUGHTING_PRE_DEFINED_CURVE_FONT('continuous');
#310=COLOUR_RGB('',0.800000011920929,0.800000011920929,0.800000011920929);
#311=SURFACE_SIDE_STYLE('',(#417));
#312=DRAUGHTING_PRE_DEFINED_CURVE_FONT('continuous');
#313=COLOUR_RGB('',0.501960813999176,0.501960813999176,0.501960813999176);
#314=EDGE_LOOP('',(#418));
#315=EDGE_LOOP('',(#419));
#316=AXIS2_PLACEMENT_3D('',#420,#421,#422);
#317=SURFACE_SIDE_STYLE('',(#423));
#318=DRAUGHTING_PRE_DEFINED_CURVE_FONT('continuous');
#319=COLOUR_RGB('',0.501960813999176,0.501960813999176,0.501960813999176);
#320=EDGE_LOOP('',(#424));
#321=EDGE_LOOP('',(#425));
#322=AXIS2_PLACEMENT_3D('',#426,#427,#428);
#323=SURFACE_SIDE_STYLE('',(#429));
#324=DRAUGHTING_PRE_DEFINED_CURVE_FONT('continuous');
#325=COLOUR_RGB('',0.501960813999176,0.501960813999176,0.501960813999176);
#326=EDGE_LOOP('',(#430));
#327=EDGE_LOOP('',(#431));
#328=AXIS2_PLACEMENT_3D('',#432,#433,#434);
#329=DRAUGHTING_PRE_DEFINED_CURVE_FONT('continuous');
#330=COLOUR_RGB('',0.501960813999176,0.501960813999176,0.501960813999176);
#331=CARTESIAN_POINT('',(-6.42939569552361E-015,12.5,105.0));
#332=AXIS2_PLACEMENT_3D('',#435,#436,#437);
#333=SURFACE_SIDE_STYLE('',(#438));
#334=DRAUGHTING_PRE_DEFINED_CURVE_FONT('continuous');
#335=COLOUR_RGB('',0.501960813999176,0.501960813999176,0.501960813999176);
#336=EDGE_LOOP('',(#439));
#337=AXIS2_PLACEMENT_3D('',#440,#441,#442);
#338=DRAUGHTING_PRE_DEFINED_CURVE_FONT('continuous');
#339=COLOUR_RGB('',0.501960813999176,0.501960813999176,0.501960813999176);
#340=CARTESIAN_POINT('',(5.29310485284285E-016,-4.42155204724508,0.198807867156503));
#341=AXIS2_PLACEMENT_3D('',#443,#444,#445);
#342=DRAUGHTING_PRE_DEFINED_CURVE_FONT('continuous');
#343=COLOUR_RGB('',0.800000011920929,0.800000011920929,0.800000011920929);
#344=CARTESIAN_POINT('',(0.0,4.6470081416258,0.0));
#345=AXIS2_PLACEMENT_3D('',#446,#447,#448);
#346=DRAUGHTING_PRE_DEFINED_CURVE_FONT('continuous');
#347=COLOUR_RGB('',0.501960813999176,0.501960813999176,0.501960813999176);
#348=CARTESIAN_POINT('',(-2.14313189850787E-015,19.0,35.0));
#349=AXIS2_PLACEMENT_3D('',#449,#450,#451);
#350=DRAUGHTING_PRE_DEFINED_CURVE_FONT('continuous');
#351=COLOUR_RGB('',0.800000011920929,0.800000011920929,0.800000011920929);
#352=CARTESIAN_POINT('',(-1.00291273141814E-015,20.6015330234239,16.3788078671565));
#353=AXIS2_PLACEMENT_3D('',#452,#453,#454);
#355=CARTESIAN_POINT('',(-2.14313189850788E-015,-4.28626379701576E-015,35.0000000000002));
#356=DIRECTION('',(6.12323399573676E-017,1.22464679914672E-016,-1.0));
#357=DIRECTION('',(-1.23259516440783E-032,1.0,1.22464679914672E-016));
#358=SURFACE_STYLE_FILL_AREA(#455);
#359=ORIENTED_EDGE('',*,*,#79,.F.);
#360=ORIENTED_EDGE('',*,*,#86,.T.);
#361=CARTESIAN_POINT('',(-1.7370948335679E-015,-3.47418966713578E-015,28.3689115061964));
#362=DIRECTION('',(6.12323399573677E-017,1.22464679914744E-016,-1.0));
#363=DIRECTION('',(-1.23259516440822E-032,1.0,1.22464679914744E-016));
#364=SURFACE_STYLE_FILL_AREA(#456);
#365=ORIENTED_EDGE('',*,*,#113,.F.);
#366=ORIENTED_EDGE('',*,*,#65,.T.);
#367=CARTESIAN_POINT('',(-4.90414090191E-016,-9.8082818038199E-016,8.0090698890887));
#368=DIRECTION('',(-6.12323399573677E-017,-1.22464679914723E-016,1.0));
#369=DIRECTION('',(-1.23259516440756E-032,1.0,1.22464679914723E-016));
#370=CARTESIAN_POINT('',(-9.8082818038199E-016,-1.96165636076397E-015,16.0181397781773));
#371=DIRECTION('',(6.12323399573677E-017,1.22464679914776E-016,-1.0));
#372=DIRECTION('',(-1.23259516440789E-032,1.0,1.22464679914776E-016));
#373=SURFACE_STYLE_FILL_AREA(#457);
#374=ORIENTED_EDGE('',*,*,#111,.T.);
#375=CARTESIAN_POINT('',(4.0743239032425,22.6362515609689,0.198807867156503));
#376=DIRECTION('',(0.0,0.0,1.0));
#377=DIRECTION('',(-1.0,0.0,0.0));
#378=SURFACE_STYLE_FILL_AREA(#458);
#379=ORIENTED_EDGE('',*,*,#113,.T.);
#380=CARTESIAN_POINT('',(0.0,2.3235040708129,0.0));
#381=DIRECTION('',(6.12323399573677E-017,1.22464679914735E-016,-1.0));
#382=DIRECTION('',(-1.0,0.0,-6.12323399573677E-017));
#383=SURFACE_STYLE_FILL_AREA(#459);
#384=ORIENTED_EDGE('',*,*,#65,.F.);
#385=ORIENTED_EDGE('',*,*,#117,.T.);
#386=CARTESIAN_POINT('',(-9.9187045590006E-016,-1.98374091180012E-015,16.1984738226669));
#387=DIRECTION('',(6.12323399573677E-017,1.22464679914715E-016,-1.0));
#388=DIRECTION('',(-1.23259516440825E-032,1.0,1.22464679914715E-016));
#389=SURFACE_STYLE_FILL_AREA(#460);
#390=ORIENTED_EDGE('',*,*,#111,.F.);
#391=ORIENTED_EDGE('',*,*,#81,.T.);
#392=CARTESIAN_POINT('',(-1.06103657258336E-015,-2.12207314516672E-015,17.3280422293529));
#393=DIRECTION('',(-6.12323399573677E-017,-1.22464679914736E-016,1.0));
#394=DIRECTION('',(-1.23259516440857E-032,1.0,1.22464679914736E-016));
#395=CARTESIAN_POINT('',(-1.55149419247445E-015,-3.10298838494889E-015,25.3378230123928));
#396=DIRECTION('',(6.12323399573677E-017,1.22464679914668E-016,-1.0));
#397=DIRECTION('',(-1.23259516440854E-032,1.0,1.22464679914668E-016));
#398=CARTESIAN_POINT('',(-1.11916041374859E-015,-2.23832082749717E-015,18.2772765915493));
#399=DIRECTION('',(6.12323399573677E-017,1.22464679914668E-016,-1.0));
#400=DIRECTION('',(-1.23259516440854E-032,1.0,1.22464679914668E-016));
#401=SURFACE_STYLE_FILL_AREA(#461);
#402=CARTESIAN_POINT('',(-1.92269547466135E-015,-3.84539094932268E-015,31.4));
#403=DIRECTION('',(6.12323399573677E-017,1.22464679914665E-016,-1.0));
#404=DIRECTION('',(-1.23259516440783E-032,1.0,1.22464679914665E-016));
#405=SURFACE_STYLE_FILL_AREA(#462);
#406=ORIENTED_EDGE('',*,*,#86,.F.);
#407=ORIENTED_EDGE('',*,*,#115,.T.);
#408=CARTESIAN_POINT('',(-2.03291368658461E-015,-4.06582737316921E-015,33.2));
#409=DIRECTION('',(-6.12323399573677E-017,-1.22464679914665E-016,1.0));
#410=DIRECTION('',(-1.23259516440783E-032,1.0,1.22464679914665E-016));
#411=SURFACE_STYLE_FILL_AREA(#463);
#412=ORIENTED_EDGE('',*,*,#117,.F.);
#413=CARTESIAN_POINT('',(4.0743239032425,22.6362515609689,16.3788078671565));
#414=DIRECTION('',(0.0,0.0,1.0));
#415=DIRECTION('',(1.0,0.0,0.0));
#416=SURFACE_STYLE_FILL_AREA(#464);
#417=SURFACE_STYLE_FILL_AREA(#465);
#418=ORIENTED_EDGE('',*,*,#81,.F.);
#419=ORIENTED_EDGE('',*,*,#79,.T.);
#420=CARTESIAN_POINT('',(-1.33532730311152E-015,-2.67065460622303E-015,21.807549801971));
#421=DIRECTION('',(-6.12323399573677E-017,-1.22464679914668E-016,1.0));
#422=DIRECTION('',(-1.23259516440854E-032,1.0,1.22464679914668E-016));
#423=SURFACE_STYLE_FILL_AREA(#466);
#424=ORIENTED_EDGE('',*,*,#57,.F.);
#425=ORIENTED_EDGE('',*,*,#106,.T.);
#426=CARTESIAN_POINT('',(-4.28626379701575E-015,-8.57252759403148E-015,70.0000000000001));
#427=DIRECTION('',(-6.12323399573676E-017,-1.22464679914672E-016,1.0));
#428=DIRECTION('',(-1.23259516440783E-032,1.0,1.22464679914672E-016));
#429=SURFACE_STYLE_FILL_AREA(#467);
#430=ORIENTED_EDGE('',*,*,#115,.F.);
#431=ORIENTED_EDGE('',*,*,#57,.T.);
#432=CARTESIAN_POINT('',(-2.14313189850788E-015,15.75,35.0000000000001));
#433=DIRECTION('',(-1.86690485298006E-030,3.04888700036594E-014,1.0));
#434=DIRECTION('',(1.0,6.12323399573677E-017,0.0));
#435=CARTESIAN_POINT('',(-6.42939569552361E-015,-1.28587913910472E-014,105.0));
#436=DIRECTION('',(6.12323399573676E-017,1.22464679914672E-016,-1.0));
#437=DIRECTION('',(-1.23259516440783E-032,1.0,1.22464679914672E-016));
#438=SURFACE_STYLE_FILL_AREA(#468);
#439=ORIENTED_EDGE('',*,*,#106,.F.);
#440=CARTESIAN_POINT('',(-6.42939569552361E-015,6.24999999999999,105.0));
#441=DIRECTION('',(7.49879891330927E-033,-1.22464679914735E-016,1.0));
#442=DIRECTION('',(1.0,6.12323399573677E-017,0.0));
#443=CARTESIAN_POINT('',(-1.21734709079258E-017,-2.43469418158405E-017,0.198807867156503));
#444=DIRECTION('',(0.0,0.0,1.0));
#445=DIRECTION('',(-1.23259516440857E-032,1.0,0.0));
#446=CARTESIAN_POINT('',(0.0,0.0,0.0));
#447=DIRECTION('',(6.12323399573677E-017,1.22464679914662E-016,-1.0));
#448=DIRECTION('',(-1.232595164408E-032,1.0,1.22464679914662E-016));
#449=CARTESIAN_POINT('',(-2.14313189850787E-015,-4.28626379701573E-015,35.0));
#450=DIRECTION('',(6.12323399573677E-017,1.22464679914665E-016,-1.0));
#451=DIRECTION('',(-1.23259516440783E-032,1.0,1.22464679914665E-016));
#452=CARTESIAN_POINT('',(-1.00291273141814E-015,-2.00582546283627E-015,16.3788078671565));
#453=DIRECTION('',(6.12323399573677E-017,1.22464679914811E-016,-1.0));
#454=DIRECTION('',(-1.23259516440773E-032,1.0,1.22464679914811E-016));
#455=FILL_AREA_STYLE('',(#469));
#456=FILL_AREA_STYLE('',(#470));
#457=FILL_AREA_STYLE('',(#471));
#458=FILL_AREA_STYLE('',(#472));
#459=FILL_AREA_STYLE('',(#473));
#460=FILL_AREA_STYLE('',(#474));
#461=FILL_AREA_STYLE('',(#475));
#462=FILL_AREA_STYLE('',(#476));
#463=FILL_AREA_STYLE('',(#477));
#464=FILL_AREA_STYLE('',(#478));
#465=FILL_AREA_STYLE('',(#479));
#466=FILL_AREA_STYLE('',(#480));
#467=FILL_AREA_STYLE('',(#481));
#468=FILL_AREA_STYLE('',(#482));
#469=FILL_AREA_STYLE_COLOUR('',#483);
#470=FILL_AREA_STYLE_COLOUR('',#484);
#471=FILL_AREA_STYLE_COLOUR('',#485);
#472=FILL_AREA_STYLE_COLOUR('',#486);
#473=FILL_AREA_STYLE_COLOUR('',#487);
#474=FILL_AREA_STYLE_COLOUR('',#488);
#475=FILL_AREA_STYLE_COLOUR('',#489);
#476=FILL_AREA_STYLE_COLOUR('',#490);
#477=FILL_AREA_STYLE_COLOUR('',#491);
#478=FILL_AREA_STYLE_COLOUR('',#492);
#479=FILL_AREA_STYLE_COLOUR('',#493);
#480=FILL_AREA_STYLE_COLOUR('',#494);
#481=FILL_AREA_STYLE_COLOUR('',#495);
#482=FILL_AREA_STYLE_COLOUR('',#496);
#483=COLOUR_RGB('',0.501960813999176,0.501960813999176,0.501960813999176);
#484=COLOUR_RGB('',0.800000011920929,0.800000011920929,0.800000011920929);
#485=COLOUR_RGB('',0.501960813999176,0.501960813999176,0.501960813999176);
#486=COLOUR_RGB('',0.800000011920929,0.800000011920929,0.800000011920929);
#487=COLOUR_RGB('',0.800000011920929,0.800000011920929,0.800000011920929);
#488=COLOUR_RGB('',0.501960813999176,0.501960813999176,0.501960813999176);
#489=COLOUR_RGB('',0.501960813999176,0.501960813999176,0.501960813999176);
#490=COLOUR_RGB('',0.501960813999176,0.501960813999176,0.501960813999176);
#491=COLOUR_RGB('',0.800000011920929,0.800000011920929,0.800000011920929);
#492=COLOUR_RGB('',0.800000011920929,0.800000011920929,0.800000011920929);
#493=COLOUR_RGB('',0.501960813999176,0.501960813999176,0.501960813999176);
#494=COLOUR_RGB('',0.501960813999176,0.501960813999176,0.501960813999176);
#495=COLOUR_RGB('',0.501960813999176,0.501960813999176,0.501960813999176);
#496=COLOUR_RGB('',0.501960813999176,0.501960813999176,0.501960813999176);
ENDSEC;
END-ISO-10303-21;
