ISO-10303-21;
HEADER;
FILE_DESCRIPTION((''),'1');
FILE_NAME('T:/00_BIG-HP\X2\FF71FF6FFF8CFF9F\X0\/2022_\X2\30C030A630F330ED30FC30C930C730FC30BF\X0\/02_STEP\X2\FF83FF9EFF70FF80\X0\/LINK\X2\7528FF83FF9EFF70FF80FF8EFF99FF80FF9E\X0\/CK\X2\FF8DFF6FFF84FF9E30FBFF71FF78FF7EFF7BFF98\X0\/11_CK\X2\8D85786CFF7DFF84FF9AFF70FF84FF7CFF6CFF9DFF78\X0\/01_CK\X2\8D85786CFF7DFF84FF9AFF70FF84FF7CFF6CFF9DFF78\X0\/\X2\5EA76A19\X0\_\X2\5C5E6027590966F4\X0\/ST24W-CKB2-290.stp','2022-09-28T06:12:37',(''),(''),'Spatial Interop R21 SP3','Kubotek KeyCreator 2011 V10.0.2 (22737)',' ');
FILE_SCHEMA(('automotive_design'));
ENDSEC;
DATA;
#1=MECHANICAL_DESIGN_GEOMETRIC_PRESENTATION_REPRESENTATION(' ',(#10,#11,#12,#13,#14,#15,#16,#17,#18,#19,#20,#21,#22,#23,#24),#6);
#2=PRODUCT_DEFINITION_CONTEXT('',#25,'design');
#3=APPLICATION_PROTOCOL_DEFINITION('INTERNATIONAL STANDARD','automotive_design',1994,#25);
#4=PRODUCT_CATEGORY_RELATIONSHIP('NONE','NONE',#26,#27);
#5=SHAPE_DEFINITION_REPRESENTATION(#28,#29);
#6= (GEOMETRIC_REPRESENTATION_CONTEXT(3)GLOBAL_UNCERTAINTY_ASSIGNED_CONTEXT((#32))GLOBAL_UNIT_ASSIGNED_CONTEXT((#34,#35,#36))REPRESENTATION_CONTEXT('NONE','WORKSPACE'));
#10=STYLED_ITEM('',(#38,#39),#40);
#11=STYLED_ITEM('',(#41,#42),#43);
#12=STYLED_ITEM('',(#44),#45);
#13=STYLED_ITEM('',(#46),#47);
#14=STYLED_ITEM('',(#48),#49);
#15=STYLED_ITEM('',(#50),#51);
#16=STYLED_ITEM('',(#52),#53);
#17=STYLED_ITEM('',(#54,#55),#56);
#18=STYLED_ITEM('',(#57,#58),#59);
#19=STYLED_ITEM('',(#60),#61);
#20=STYLED_ITEM('',(#62,#63),#64);
#21=STYLED_ITEM('',(#65,#66),#67);
#22=STYLED_ITEM('',(#68),#69);
#23=STYLED_ITEM('',(#70,#71),#72);
#24=STYLED_ITEM('',(#73,#74),#75);
#25=APPLICATION_CONTEXT(' ');
#26=PRODUCT_CATEGORY('part','NONE');
#27=PRODUCT_RELATED_PRODUCT_CATEGORY('detail',' ',(#76));
#28=PRODUCT_DEFINITION_SHAPE('NONE','NONE',#77);
#29=ADVANCED_BREP_SHAPE_REPRESENTATION('240[2]',(#43,#78),#6);
#32=UNCERTAINTY_MEASURE_WITH_UNIT(LENGTH_MEASURE(1.0E-006),#34,'','');
#34= (CONVERSION_BASED_UNIT('MILLIMETRE',#81)LENGTH_UNIT()NAMED_UNIT(#84));
#35= (NAMED_UNIT(#86)PLANE_ANGLE_UNIT()SI_UNIT($,.RADIAN.));
#36= (NAMED_UNIT(#86)SOLID_ANGLE_UNIT()SI_UNIT($,.STERADIAN.));
#38=PRESENTATION_STYLE_ASSIGNMENT((#92));
#39=PRESENTATION_STYLE_ASSIGNMENT((#93));
#40=ADVANCED_FACE('240[2]',(#94),#95,.T.);
#41=PRESENTATION_STYLE_ASSIGNMENT((#96));
#42=PRESENTATION_STYLE_ASSIGNMENT((#97));
#43=MANIFOLD_SOLID_BREP('240[2]',#98);
#44=PRESENTATION_STYLE_ASSIGNMENT((#99));
#45=EDGE_CURVE('240[2]',#100,#100,#101,.T.);
#46=PRESENTATION_STYLE_ASSIGNMENT((#102));
#47=EDGE_CURVE('240[2]',#103,#103,#104,.T.);
#48=PRESENTATION_STYLE_ASSIGNMENT((#105));
#49=EDGE_CURVE('240[2]',#106,#106,#107,.T.);
#50=PRESENTATION_STYLE_ASSIGNMENT((#108));
#51=EDGE_CURVE('240[2]',#109,#109,#110,.T.);
#52=PRESENTATION_STYLE_ASSIGNMENT((#111));
#53=EDGE_CURVE('240[2]',#112,#113,#114,.T.);
#54=PRESENTATION_STYLE_ASSIGNMENT((#115));
#55=PRESENTATION_STYLE_ASSIGNMENT((#116));
#56=ADVANCED_FACE('240[2]',(#117,#118,#119),#120,.T.);
#57=PRESENTATION_STYLE_ASSIGNMENT((#121));
#58=PRESENTATION_STYLE_ASSIGNMENT((#122));
#59=ADVANCED_FACE('240[2]',(#123),#124,.F.);
#60=PRESENTATION_STYLE_ASSIGNMENT((#125));
#61=EDGE_CURVE('240[2]',#126,#126,#127,.T.);
#62=PRESENTATION_STYLE_ASSIGNMENT((#128));
#63=PRESENTATION_STYLE_ASSIGNMENT((#129));
#64=ADVANCED_FACE('240[2]',(#130,#131),#132,.F.);
#65=PRESENTATION_STYLE_ASSIGNMENT((#133));
#66=PRESENTATION_STYLE_ASSIGNMENT((#134));
#67=ADVANCED_FACE('240[2]',(#135,#136),#137,.T.);
#68=PRESENTATION_STYLE_ASSIGNMENT((#138));
#69=EDGE_CURVE('240[2]',#113,#112,#139,.T.);
#70=PRESENTATION_STYLE_ASSIGNMENT((#140));
#71=PRESENTATION_STYLE_ASSIGNMENT((#141));
#72=ADVANCED_FACE('240[2]',(#142,#143),#144,.F.);
#73=PRESENTATION_STYLE_ASSIGNMENT((#145));
#74=PRESENTATION_STYLE_ASSIGNMENT((#146));
#75=ADVANCED_FACE('240[2]',(#147),#148,.T.);
#76=PRODUCT('240[2]','240[2]','PART-240[2]-DESC',(#149));
#77=PRODUCT_DEFINITION('NONE','NONE',#150,#2);
#78=AXIS2_PLACEMENT_3D('',#151,#152,#153);
#81=LENGTH_MEASURE_WITH_UNIT(LENGTH_MEASURE(1.0),#154);
#84=DIMENSIONAL_EXPONENTS(1.0,0.0,0.0,0.0,0.0,0.0,0.0);
#86=DIMENSIONAL_EXPONENTS(0.0,0.0,0.0,0.0,0.0,0.0,0.0);
#92=SURFACE_STYLE_USAGE(.BOTH.,#155);
#93=CURVE_STYLE('',#156,POSITIVE_LENGTH_MEASURE(1000.0),#157);
#94=FACE_OUTER_BOUND('',#158,.T.);
#95=PLANE('',#159);
#96=SURFACE_STYLE_USAGE(.BOTH.,#160);
#97=CURVE_STYLE('',#161,POSITIVE_LENGTH_MEASURE(1000.0),#162);
#98=CLOSED_SHELL('',(#72,#40,#64,#59,#75,#56,#67));
#99=CURVE_STYLE('',#163,POSITIVE_LENGTH_MEASURE(1000.0),#164);
#100=VERTEX_POINT('',#165);
#101=CIRCLE('',#166,7.0);
#102=CURVE_STYLE('',#167,POSITIVE_LENGTH_MEASURE(1000.0),#168);
#103=VERTEX_POINT('',#169);
#104=CIRCLE('',#170,7.0);
#105=CURVE_STYLE('',#171,POSITIVE_LENGTH_MEASURE(1000.0),#172);
#106=VERTEX_POINT('',#173);
#107=CIRCLE('',#174,2.6);
#108=CURVE_STYLE('',#175,POSITIVE_LENGTH_MEASURE(1000.0),#176);
#109=VERTEX_POINT('',#177);
#110=CIRCLE('',#178,12.0);
#111=CURVE_STYLE('',#179,POSITIVE_LENGTH_MEASURE(1000.0),#180);
#112=VERTEX_POINT('',#181);
#113=VERTEX_POINT('',#182);
#114=B_SPLINE_CURVE_WITH_KNOTS('',3,(#183,#184,#185,#186,#187,#188,#189,#190,#191,#192,#193,#194,#195,#196,#197,#198,#199,#200,#201,#202,#203,#204,#205,#206,#207,#208,#209,#210,#211,#212,#213,#214,#215,#216,#217,#218,#219,#220,#221,#222,#223,#224,#225,#226,#227,#228,#229,#230,#231,#232,#233,#234,#235,#236,#237,#238,#239,#240,#241,#242,#243,#244,#245,#246,#247,#248),.UNSPECIFIED.,.T.,.F.,(4,2,2,2,2,2,2,2,2,2,2,2,2,2,2,2,2,2,2,2,2,2,2,2,2,2,2,2,2,2,2,2,4),(0.0,0.491392780093388,0.982785560186775,1.47417834028016,1.96557112037355,2.45692572024701,2.94828032012047,3.43963491999393,3.93098951986739,4.42234411974085,4.91369871961431,5.40505331948777,5.89640791936123,6.38780069945462,6.87919347954801,7.37058625964139,7.86197903973478,8.35337181982817,8.84476459992156,9.33615738001494,9.82755016010833,10.3189047599818,10.8102593598553,11.3016139597287,11.7929685596022,12.2843231594756,12.7756777593491,13.2670323592226,13.758386959096,14.2497797391894,14.7411725192828,15.2325652993762,15.7239580794696),.UNSPECIFIED.);
#115=SURFACE_STYLE_USAGE(.BOTH.,#249);
#116=CURVE_STYLE('',#250,POSITIVE_LENGTH_MEASURE(1000.0),#251);
#117=FACE_BOUND('',#252,.T.);
#118=FACE_BOUND('',#253,.T.);
#119=FACE_BOUND('',#254,.T.);
#120=CYLINDRICAL_SURFACE('',#255,12.0);
#121=SURFACE_STYLE_USAGE(.BOTH.,#256);
#122=CURVE_STYLE('',#257,POSITIVE_LENGTH_MEASURE(1000.0),#258);
#123=FACE_OUTER_BOUND('',#259,.T.);
#124=PLANE('',#260);
#125=CURVE_STYLE('',#261,POSITIVE_LENGTH_MEASURE(1000.0),#262);
#126=VERTEX_POINT('',#263);
#127=CIRCLE('',#264,12.0);
#128=SURFACE_STYLE_USAGE(.BOTH.,#265);
#129=CURVE_STYLE('',#266,POSITIVE_LENGTH_MEASURE(1000.0),#267);
#130=FACE_BOUND('',#268,.T.);
#131=FACE_BOUND('',#269,.T.);
#132=CYLINDRICAL_SURFACE('',#270,7.0);
#133=SURFACE_STYLE_USAGE(.BOTH.,#271);
#134=CURVE_STYLE('',#272,POSITIVE_LENGTH_MEASURE(1000.0),#273);
#135=FACE_BOUND('',#274,.T.);
#136=FACE_OUTER_BOUND('',#275,.T.);
#137=PLANE('',#276);
#138=CURVE_STYLE('',#277,POSITIVE_LENGTH_MEASURE(1000.0),#278);
#139=B_SPLINE_CURVE_WITH_KNOTS('',3,(#279,#280,#281,#282,#283,#284,#285,#286,#287,#288,#289,#290,#291,#292,#293,#294,#295,#296,#297,#298,#299,#300,#301,#302,#303,#304,#305,#306,#307,#308,#309,#310,#311,#312,#313,#314,#315,#316,#317,#318,#319,#320,#321,#322,#323,#324,#325,#326,#327,#328,#329,#330,#331,#332,#333,#334,#335,#336,#337,#338,#339,#340,#341,#342,#343,#344),.UNSPECIFIED.,.T.,.F.,(4,2,2,2,2,2,2,2,2,2,2,2,2,2,2,2,2,2,2,2,2,2,2,2,2,2,2,2,2,2,2,2,4),(0.0,0.491392780093388,0.982785560186775,1.47417834028016,1.96557112037355,2.45692572024701,2.94828032012047,3.43963491999393,3.93098951986739,4.42234411974085,4.91369871961431,5.40505331948777,5.89640791936123,6.38780069945462,6.87919347954801,7.37058625964139,7.86197903973478,8.35337181982817,8.84476459992156,9.33615738001494,9.82755016010833,10.3189047599818,10.8102593598553,11.3016139597287,11.7929685596022,12.2843231594756,12.7756777593491,13.2670323592226,13.758386959096,14.2497797391894,14.7411725192828,15.2325652993762,15.7239580794696),.UNSPECIFIED.);
#140=SURFACE_STYLE_USAGE(.BOTH.,#345);
#141=CURVE_STYLE('',#346,POSITIVE_LENGTH_MEASURE(1000.0),#347);
#142=FACE_BOUND('',#348,.T.);
#143=FACE_BOUND('',#349,.T.);
#144=CYLINDRICAL_SURFACE('',#350,2.6);
#145=SURFACE_STYLE_USAGE(.BOTH.,#351);
#146=CURVE_STYLE('',#352,POSITIVE_LENGTH_MEASURE(1000.0),#353);
#147=FACE_OUTER_BOUND('',#354,.T.);
#148=PLANE('',#355);
#149=PRODUCT_CONTEXT('',#25,'mechanical');
#150=PRODUCT_DEFINITION_FORMATION_WITH_SPECIFIED_SOURCE(' ','NONE',#76,.NOT_KNOWN.);
#151=CARTESIAN_POINT('',(0.0,0.0,0.0));
#152=DIRECTION('',(0.0,0.0,1.0));
#153=DIRECTION('',(1.0,0.0,0.0));
#154= (NAMED_UNIT(#84)LENGTH_UNIT()SI_UNIT(.MILLI.,.METRE.));
#155=SURFACE_SIDE_STYLE('',(#357));
#156=DRAUGHTING_PRE_DEFINED_CURVE_FONT('continuous');
#157=COLOUR_RGB('',0.501960813999176,0.501960813999176,0.501960813999176);
#158=EDGE_LOOP('',(#358));
#159=AXIS2_PLACEMENT_3D('',#359,#360,#361);
#160=SURFACE_SIDE_STYLE('',(#362));
#161=DRAUGHTING_PRE_DEFINED_CURVE_FONT('continuous');
#162=COLOUR_RGB('',0.501960813999176,0.501960813999176,0.501960813999176);
#163=DRAUGHTING_PRE_DEFINED_CURVE_FONT('continuous');
#164=COLOUR_RGB('',0.501960813999176,0.501960813999176,0.501960813999176);
#165=CARTESIAN_POINT('',(7.0,0.0,17.5));
#166=AXIS2_PLACEMENT_3D('',#363,#364,#365);
#167=DRAUGHTING_PRE_DEFINED_CURVE_FONT('continuous');
#168=COLOUR_RGB('',0.501960813999176,0.501960813999176,0.501960813999176);
#169=CARTESIAN_POINT('',(7.0,0.0,0.0));
#170=AXIS2_PLACEMENT_3D('',#366,#367,#368);
#171=DRAUGHTING_PRE_DEFINED_CURVE_FONT('continuous');
#172=COLOUR_RGB('',0.501960813999176,0.501960813999176,0.501960813999176);
#173=CARTESIAN_POINT('',(2.6,11.7,6.5));
#174=AXIS2_PLACEMENT_3D('',#369,#370,#371);
#175=DRAUGHTING_PRE_DEFINED_CURVE_FONT('continuous');
#176=COLOUR_RGB('',0.501960813999176,0.501960813999176,0.501960813999176);
#177=CARTESIAN_POINT('',(-1.4791141972894E-031,12.0,1.46957615897682E-015));
#178=AXIS2_PLACEMENT_3D('',#372,#373,#374);
#179=DRAUGHTING_PRE_DEFINED_CURVE_FONT('continuous');
#180=COLOUR_RGB('',0.501960813999176,0.501960813999176,0.501960813999176);
#181=CARTESIAN_POINT('',(-2.77382500006876E-015,12.0,3.9));
#182=CARTESIAN_POINT('',(-2.13700866451213E-015,12.0,9.1));
#183=CARTESIAN_POINT('',(2.6,11.714947716486,6.5));
#184=CARTESIAN_POINT('',(2.6,11.714947716486,6.66379759336446));
#185=CARTESIAN_POINT('',(2.5842718483291,11.7184760752339,6.8330169847519));
#186=CARTESIAN_POINT('',(2.51821521457459,11.7328485307004,7.16929323314495));
#187=CARTESIAN_POINT('',(2.46790277363863,11.7436813147597,7.33635372441045));
#188=CARTESIAN_POINT('',(2.33507495818761,11.7708121925983,7.65648468037344));
#189=CARTESIAN_POINT('',(2.2524539916052,11.7871051895351,7.8098200552336));
#190=CARTESIAN_POINT('',(2.06172836537446,11.8219572778888,8.09325255679755));
#191=CARTESIAN_POINT('',(1.95361024270728,11.8404806132573,8.22334501946277));
#192=CARTESIAN_POINT('',(1.7233539650326,11.8761788103437,8.45360129713745));
#193=CARTESIAN_POINT('',(1.59326566096718,11.894615867168,8.56171842088603));
#194=CARTESIAN_POINT('',(1.3098305515056,11.9291544553718,8.75244805493825));
#195=CARTESIAN_POINT('',(1.15648841585553,11.9452222879364,8.83507360541592));
#196=CARTESIAN_POINT('',(0.836344253502767,11.9718974791246,8.96790650613339));
#197=CARTESIAN_POINT('',(0.669277516241323,11.9825033991715,9.01821943562407));
#198=CARTESIAN_POINT('',(0.332999572354546,11.9965591479272,9.08427413494275));
#199=CARTESIAN_POINT('',(0.163784866624485,12.0,9.09999999999999));
#200=CARTESIAN_POINT('',(-0.163784866624489,12.0,9.09999999999999));
#201=CARTESIAN_POINT('',(-0.33299957235455,11.9965591479272,9.08427413494275));
#202=CARTESIAN_POINT('',(-0.669277516241327,11.9825033991715,9.01821943562408));
#203=CARTESIAN_POINT('',(-0.836344253502771,11.9718974791246,8.96790650613339));
#204=CARTESIAN_POINT('',(-1.15648841585553,11.9452222879364,8.83507360541592));
#205=CARTESIAN_POINT('',(-1.3098305515056,11.9291544553718,8.75244805493825));
#206=CARTESIAN_POINT('',(-1.59326566096719,11.894615867168,8.56171842088603));
#207=CARTESIAN_POINT('',(-1.72335396503261,11.8761788103437,8.45360129713745));
#208=CARTESIAN_POINT('',(-1.95361024270728,11.8404806132573,8.22334501946277));
#209=CARTESIAN_POINT('',(-2.06172836537446,11.8219572778888,8.09325255679755));
#210=CARTESIAN_POINT('',(-2.25245399160521,11.7871051895351,7.8098200552336));
#211=CARTESIAN_POINT('',(-2.33507495818762,11.7708121925983,7.65648468037344));
#212=CARTESIAN_POINT('',(-2.46790277363864,11.7436813147597,7.33635372441045));
#213=CARTESIAN_POINT('',(-2.51821521457459,11.7328485307004,7.16929323314495));
#214=CARTESIAN_POINT('',(-2.58427184832911,11.7184760752339,6.8330169847519));
#215=CARTESIAN_POINT('',(-2.6,11.714947716486,6.66379759336446));
#216=CARTESIAN_POINT('',(-2.6,11.714947716486,6.33620240663554));
#217=CARTESIAN_POINT('',(-2.58427184832911,11.7184760752339,6.16698301524809));
#218=CARTESIAN_POINT('',(-2.51821521457459,11.7328485307004,5.83070676685505));
#219=CARTESIAN_POINT('',(-2.46790277363864,11.7436813147597,5.66364627558956));
#220=CARTESIAN_POINT('',(-2.33507495818762,11.7708121925983,5.34351531962657));
#221=CARTESIAN_POINT('',(-2.25245399160522,11.7871051895351,5.19017994476642));
#222=CARTESIAN_POINT('',(-2.06172836537448,11.8219572778888,4.90674744320246));
#223=CARTESIAN_POINT('',(-1.95361024270728,11.8404806132573,4.77665498053723));
#224=CARTESIAN_POINT('',(-1.72335396503261,11.8761788103437,4.54639870286255));
#225=CARTESIAN_POINT('',(-1.59326566096719,11.894615867168,4.43828157911397));
#226=CARTESIAN_POINT('',(-1.3098305515056,11.9291544553718,4.24755194506175));
#227=CARTESIAN_POINT('',(-1.15648841585553,11.9452222879364,4.16492639458408));
#228=CARTESIAN_POINT('',(-0.836344253502773,11.9718974791246,4.03209349386661));
#229=CARTESIAN_POINT('',(-0.669277516241328,11.9825033991715,3.98178056437593));
#230=CARTESIAN_POINT('',(-0.332999572354551,11.9965591479273,3.91572586505725));
#231=CARTESIAN_POINT('',(-0.16378486662449,12.0,3.90000000000001));
#232=CARTESIAN_POINT('',(0.163784866624484,12.0,3.90000000000001));
#233=CARTESIAN_POINT('',(0.332999572354546,11.9965591479273,3.91572586505725));
#234=CARTESIAN_POINT('',(0.669277516241323,11.9825033991715,3.98178056437593));
#235=CARTESIAN_POINT('',(0.836344253502768,11.9718974791246,4.03209349386661));
#236=CARTESIAN_POINT('',(1.15648841585553,11.9452222879364,4.16492639458408));
#237=CARTESIAN_POINT('',(1.3098305515056,11.9291544553718,4.24755194506175));
#238=CARTESIAN_POINT('',(1.59326566096718,11.894615867168,4.43828157911396));
#239=CARTESIAN_POINT('',(1.7233539650326,11.8761788103437,4.54639870286255));
#240=CARTESIAN_POINT('',(1.95361024270728,11.8404806132573,4.77665498053723));
#241=CARTESIAN_POINT('',(2.06172836537447,11.8219572778888,4.90674744320246));
#242=CARTESIAN_POINT('',(2.25245399160521,11.7871051895351,5.19017994476642));
#243=CARTESIAN_POINT('',(2.33507495818762,11.7708121925983,5.34351531962657));
#244=CARTESIAN_POINT('',(2.46790277363864,11.7436813147597,5.66364627558956));
#245=CARTESIAN_POINT('',(2.51821521457459,11.7328485307004,5.83070676685505));
#246=CARTESIAN_POINT('',(2.5842718483291,11.7184760752339,6.16698301524809));
#247=CARTESIAN_POINT('',(2.6,11.714947716486,6.33620240663554));
#248=CARTESIAN_POINT('',(2.6,11.714947716486,6.5));
#249=SURFACE_SIDE_STYLE('',(#375));
#250=DRAUGHTING_PRE_DEFINED_CURVE_FONT('continuous');
#251=COLOUR_RGB('',0.501960813999176,0.501960813999176,0.501960813999176);
#252=EDGE_LOOP('',(#376,#377));
#253=EDGE_LOOP('',(#378));
#254=EDGE_LOOP('',(#379));
#255=AXIS2_PLACEMENT_3D('',#380,#381,#382);
#256=SURFACE_SIDE_STYLE('',(#383));
#257=DRAUGHTING_PRE_DEFINED_CURVE_FONT('continuous');
#258=COLOUR_RGB('',0.501960813999176,0.501960813999176,0.501960813999176);
#259=EDGE_LOOP('',(#384));
#260=AXIS2_PLACEMENT_3D('',#385,#386,#387);
#261=DRAUGHTING_PRE_DEFINED_CURVE_FONT('continuous');
#262=COLOUR_RGB('',0.501960813999176,0.501960813999176,0.501960813999176);
#263=CARTESIAN_POINT('',(-1.77573785876366E-014,12.0,290.0));
#264=AXIS2_PLACEMENT_3D('',#388,#389,#390);
#265=SURFACE_SIDE_STYLE('',(#391));
#266=DRAUGHTING_PRE_DEFINED_CURVE_FONT('continuous');
#267=COLOUR_RGB('',0.501960813999176,0.501960813999176,0.501960813999176);
#268=EDGE_LOOP('',(#392));
#269=EDGE_LOOP('',(#393));
#270=AXIS2_PLACEMENT_3D('',#394,#395,#396);
#271=SURFACE_SIDE_STYLE('',(#397));
#272=DRAUGHTING_PRE_DEFINED_CURVE_FONT('continuous');
#273=COLOUR_RGB('',0.501960813999176,0.501960813999176,0.501960813999176);
#274=EDGE_LOOP('',(#398));
#275=EDGE_LOOP('',(#399));
#276=AXIS2_PLACEMENT_3D('',#400,#401,#402);
#277=DRAUGHTING_PRE_DEFINED_CURVE_FONT('continuous');
#278=COLOUR_RGB('',0.501960813999176,0.501960813999176,0.501960813999176);
#279=CARTESIAN_POINT('',(2.6,11.714947716486,6.5));
#280=CARTESIAN_POINT('',(2.6,11.714947716486,6.66379759336446));
#281=CARTESIAN_POINT('',(2.5842718483291,11.7184760752339,6.8330169847519));
#282=CARTESIAN_POINT('',(2.51821521457459,11.7328485307004,7.16929323314495));
#283=CARTESIAN_POINT('',(2.46790277363863,11.7436813147597,7.33635372441045));
#284=CARTESIAN_POINT('',(2.33507495818761,11.7708121925983,7.65648468037344));
#285=CARTESIAN_POINT('',(2.2524539916052,11.7871051895351,7.8098200552336));
#286=CARTESIAN_POINT('',(2.06172836537446,11.8219572778888,8.09325255679755));
#287=CARTESIAN_POINT('',(1.95361024270728,11.8404806132573,8.22334501946277));
#288=CARTESIAN_POINT('',(1.7233539650326,11.8761788103437,8.45360129713745));
#289=CARTESIAN_POINT('',(1.59326566096718,11.894615867168,8.56171842088603));
#290=CARTESIAN_POINT('',(1.3098305515056,11.9291544553718,8.75244805493825));
#291=CARTESIAN_POINT('',(1.15648841585553,11.9452222879364,8.83507360541592));
#292=CARTESIAN_POINT('',(0.836344253502767,11.9718974791246,8.96790650613339));
#293=CARTESIAN_POINT('',(0.669277516241323,11.9825033991715,9.01821943562407));
#294=CARTESIAN_POINT('',(0.332999572354546,11.9965591479272,9.08427413494275));
#295=CARTESIAN_POINT('',(0.163784866624485,12.0,9.09999999999999));
#296=CARTESIAN_POINT('',(-0.163784866624489,12.0,9.09999999999999));
#297=CARTESIAN_POINT('',(-0.33299957235455,11.9965591479272,9.08427413494275));
#298=CARTESIAN_POINT('',(-0.669277516241327,11.9825033991715,9.01821943562408));
#299=CARTESIAN_POINT('',(-0.836344253502771,11.9718974791246,8.96790650613339));
#300=CARTESIAN_POINT('',(-1.15648841585553,11.9452222879364,8.83507360541592));
#301=CARTESIAN_POINT('',(-1.3098305515056,11.9291544553718,8.75244805493825));
#302=CARTESIAN_POINT('',(-1.59326566096719,11.894615867168,8.56171842088603));
#303=CARTESIAN_POINT('',(-1.72335396503261,11.8761788103437,8.45360129713745));
#304=CARTESIAN_POINT('',(-1.95361024270728,11.8404806132573,8.22334501946277));
#305=CARTESIAN_POINT('',(-2.06172836537446,11.8219572778888,8.09325255679755));
#306=CARTESIAN_POINT('',(-2.25245399160521,11.7871051895351,7.8098200552336));
#307=CARTESIAN_POINT('',(-2.33507495818762,11.7708121925983,7.65648468037344));
#308=CARTESIAN_POINT('',(-2.46790277363864,11.7436813147597,7.33635372441045));
#309=CARTESIAN_POINT('',(-2.51821521457459,11.7328485307004,7.16929323314495));
#310=CARTESIAN_POINT('',(-2.58427184832911,11.7184760752339,6.8330169847519));
#311=CARTESIAN_POINT('',(-2.6,11.714947716486,6.66379759336446));
#312=CARTESIAN_POINT('',(-2.6,11.714947716486,6.33620240663554));
#313=CARTESIAN_POINT('',(-2.58427184832911,11.7184760752339,6.16698301524809));
#314=CARTESIAN_POINT('',(-2.51821521457459,11.7328485307004,5.83070676685505));
#315=CARTESIAN_POINT('',(-2.46790277363864,11.7436813147597,5.66364627558956));
#316=CARTESIAN_POINT('',(-2.33507495818762,11.7708121925983,5.34351531962657));
#317=CARTESIAN_POINT('',(-2.25245399160522,11.7871051895351,5.19017994476642));
#318=CARTESIAN_POINT('',(-2.06172836537448,11.8219572778888,4.90674744320246));
#319=CARTESIAN_POINT('',(-1.95361024270728,11.8404806132573,4.77665498053723));
#320=CARTESIAN_POINT('',(-1.72335396503261,11.8761788103437,4.54639870286255));
#321=CARTESIAN_POINT('',(-1.59326566096719,11.894615867168,4.43828157911397));
#322=CARTESIAN_POINT('',(-1.3098305515056,11.9291544553718,4.24755194506175));
#323=CARTESIAN_POINT('',(-1.15648841585553,11.9452222879364,4.16492639458408));
#324=CARTESIAN_POINT('',(-0.836344253502773,11.9718974791246,4.03209349386661));
#325=CARTESIAN_POINT('',(-0.669277516241328,11.9825033991715,3.98178056437593));
#326=CARTESIAN_POINT('',(-0.332999572354551,11.9965591479273,3.91572586505725));
#327=CARTESIAN_POINT('',(-0.16378486662449,12.0,3.90000000000001));
#328=CARTESIAN_POINT('',(0.163784866624484,12.0,3.90000000000001));
#329=CARTESIAN_POINT('',(0.332999572354546,11.9965591479273,3.91572586505725));
#330=CARTESIAN_POINT('',(0.669277516241323,11.9825033991715,3.98178056437593));
#331=CARTESIAN_POINT('',(0.836344253502768,11.9718974791246,4.03209349386661));
#332=CARTESIAN_POINT('',(1.15648841585553,11.9452222879364,4.16492639458408));
#333=CARTESIAN_POINT('',(1.3098305515056,11.9291544553718,4.24755194506175));
#334=CARTESIAN_POINT('',(1.59326566096718,11.894615867168,4.43828157911396));
#335=CARTESIAN_POINT('',(1.7233539650326,11.8761788103437,4.54639870286255));
#336=CARTESIAN_POINT('',(1.95361024270728,11.8404806132573,4.77665498053723));
#337=CARTESIAN_POINT('',(2.06172836537447,11.8219572778888,4.90674744320246));
#338=CARTESIAN_POINT('',(2.25245399160521,11.7871051895351,5.19017994476642));
#339=CARTESIAN_POINT('',(2.33507495818762,11.7708121925983,5.34351531962657));
#340=CARTESIAN_POINT('',(2.46790277363864,11.7436813147597,5.66364627558956));
#341=CARTESIAN_POINT('',(2.51821521457459,11.7328485307004,5.83070676685505));
#342=CARTESIAN_POINT('',(2.5842718483291,11.7184760752339,6.16698301524809));
#343=CARTESIAN_POINT('',(2.6,11.714947716486,6.33620240663554));
#344=CARTESIAN_POINT('',(2.6,11.714947716486,6.5));
#345=SURFACE_SIDE_STYLE('',(#403));
#346=DRAUGHTING_PRE_DEFINED_CURVE_FONT('continuous');
#347=COLOUR_RGB('',0.501960813999176,0.501960813999176,0.501960813999176);
#348=EDGE_LOOP('',(#404,#405));
#349=EDGE_LOOP('',(#406));
#350=AXIS2_PLACEMENT_3D('',#407,#408,#409);
#351=SURFACE_SIDE_STYLE('',(#410));
#352=DRAUGHTING_PRE_DEFINED_CURVE_FONT('continuous');
#353=COLOUR_RGB('',0.501960813999176,0.501960813999176,0.501960813999176);
#354=EDGE_LOOP('',(#411));
#355=AXIS2_PLACEMENT_3D('',#412,#413,#414);
#357=SURFACE_STYLE_FILL_AREA(#415);
#358=ORIENTED_EDGE('',*,*,#49,.T.);
#359=CARTESIAN_POINT('',(0.460575745583933,11.7,3.94111938876));
#360=DIRECTION('',(-0.0,1.0,0.0));
#361=DIRECTION('',(1.0,0.0,0.0));
#362=SURFACE_STYLE_FILL_AREA(#416);
#363=CARTESIAN_POINT('',(0.0,0.0,17.5));
#364=DIRECTION('',(0.0,0.0,-1.0));
#365=DIRECTION('',(1.0,0.0,0.0));
#366=CARTESIAN_POINT('',(0.0,0.0,7.34788079488412E-016));
#367=DIRECTION('',(-6.12323399573677E-017,-1.22464679914735E-016,1.0));
#368=DIRECTION('',(1.0,-7.49879891330927E-033,6.12323399573677E-017));
#369=CARTESIAN_POINT('',(-2.29621274840129E-015,11.7,6.5));
#370=DIRECTION('',(-0.0,1.0,0.0));
#371=DIRECTION('',(1.0,0.0,0.0));
#372=CARTESIAN_POINT('',(0.0,0.0,0.0));
#373=DIRECTION('',(6.12323399573677E-017,1.22464679914735E-016,-1.0));
#374=DIRECTION('',(-1.23259516440783E-032,1.0,1.22464679914735E-016));
#375=SURFACE_STYLE_FILL_AREA(#417);
#376=ORIENTED_EDGE('',*,*,#69,.T.);
#377=ORIENTED_EDGE('',*,*,#53,.T.);
#378=ORIENTED_EDGE('',*,*,#51,.F.);
#379=ORIENTED_EDGE('',*,*,#61,.T.);
#380=CARTESIAN_POINT('',(-8.87868929381831E-015,-1.77573785876366E-014,145.0));
#381=DIRECTION('',(-6.12323399573677E-017,-1.22464679914735E-016,1.0));
#382=DIRECTION('',(-1.23259516440783E-032,1.0,1.22464679914735E-016));
#383=SURFACE_STYLE_FILL_AREA(#418);
#384=ORIENTED_EDGE('',*,*,#45,.T.);
#385=CARTESIAN_POINT('',(1.24001162272598,6.88929395333836,17.5));
#386=DIRECTION('',(0.0,0.0,1.0));
#387=DIRECTION('',(1.0,0.0,0.0));
#388=CARTESIAN_POINT('',(-1.77573785876366E-014,-3.55147571752732E-014,290.0));
#389=DIRECTION('',(6.12323399573677E-017,1.22464679914735E-016,-1.0));
#390=DIRECTION('',(-1.23259516440783E-032,1.0,1.22464679914735E-016));
#391=SURFACE_STYLE_FILL_AREA(#419);
#392=ORIENTED_EDGE('',*,*,#45,.F.);
#393=ORIENTED_EDGE('',*,*,#47,.F.);
#394=CARTESIAN_POINT('',(0.0,0.0,0.0));
#395=DIRECTION('',(0.0,0.0,-1.0));
#396=DIRECTION('',(1.0,0.0,0.0));
#397=SURFACE_STYLE_FILL_AREA(#420);
#398=ORIENTED_EDGE('',*,*,#47,.T.);
#399=ORIENTED_EDGE('',*,*,#51,.T.);
#400=CARTESIAN_POINT('',(-7.39557098644699E-032,6.0,7.34788079488412E-016));
#401=DIRECTION('',(6.12323399573677E-017,1.22464679914735E-016,-1.0));
#402=DIRECTION('',(-1.0,0.0,-6.12323399573677E-017));
#403=SURFACE_STYLE_FILL_AREA(#421);
#404=ORIENTED_EDGE('',*,*,#69,.F.);
#405=ORIENTED_EDGE('',*,*,#53,.F.);
#406=ORIENTED_EDGE('',*,*,#49,.F.);
#407=CARTESIAN_POINT('',(-2.29621274840129E-015,12.0,6.5));
#408=DIRECTION('',(0.0,-1.0,0.0));
#409=DIRECTION('',(1.0,0.0,0.0));
#410=SURFACE_STYLE_FILL_AREA(#422);
#411=ORIENTED_EDGE('',*,*,#61,.F.);
#412=CARTESIAN_POINT('',(-1.77573785876366E-014,5.99999999999996,290.0));
#413=DIRECTION('',(-9.18338008663382E-049,-1.22464679914735E-016,1.0));
#414=DIRECTION('',(1.0,-7.49879891330927E-033,0.0));
#415=FILL_AREA_STYLE('',(#423));
#416=FILL_AREA_STYLE('',(#424));
#417=FILL_AREA_STYLE('',(#425));
#418=FILL_AREA_STYLE('',(#426));
#419=FILL_AREA_STYLE('',(#427));
#420=FILL_AREA_STYLE('',(#428));
#421=FILL_AREA_STYLE('',(#429));
#422=FILL_AREA_STYLE('',(#430));
#423=FILL_AREA_STYLE_COLOUR('',#431);
#424=FILL_AREA_STYLE_COLOUR('',#432);
#425=FILL_AREA_STYLE_COLOUR('',#433);
#426=FILL_AREA_STYLE_COLOUR('',#434);
#427=FILL_AREA_STYLE_COLOUR('',#435);
#428=FILL_AREA_STYLE_COLOUR('',#436);
#429=FILL_AREA_STYLE_COLOUR('',#437);
#430=FILL_AREA_STYLE_COLOUR('',#438);
#431=COLOUR_RGB('',0.501960813999176,0.501960813999176,0.501960813999176);
#432=COLOUR_RGB('',0.501960813999176,0.501960813999176,0.501960813999176);
#433=COLOUR_RGB('',0.501960813999176,0.501960813999176,0.501960813999176);
#434=COLOUR_RGB('',0.501960813999176,0.501960813999176,0.501960813999176);
#435=COLOUR_RGB('',0.501960813999176,0.501960813999176,0.501960813999176);
#436=COLOUR_RGB('',0.501960813999176,0.501960813999176,0.501960813999176);
#437=COLOUR_RGB('',0.501960813999176,0.501960813999176,0.501960813999176);
#438=COLOUR_RGB('',0.501960813999176,0.501960813999176,0.501960813999176);
ENDSEC;
END-ISO-10303-21;
