ISO-10303-21;
HEADER;
FILE_DESCRIPTION((''),'1');
FILE_NAME('T:/00_BIG-HP\X2\FF71FF6FFF8CFF9F\X0\/2022_\X2\30C030A630F330ED30FC30C930C730FC30BF\X0\/02_STEP\X2\FF83FF9EFF70FF80\X0\/LINK\X2\7528FF83FF9EFF70FF80FF8EFF99FF80FF9E\X0\/CK\X2\FF8DFF6FFF84FF9E30FBFF71FF78FF7EFF7BFF98\X0\/11_CK\X2\8D85786CFF7DFF84FF9AFF70FF84FF7CFF6CFF9DFF78\X0\/01_CK\X2\8D85786CFF7DFF84FF9AFF70FF84FF7CFF6CFF9DFF78\X0\/\X2\5EA76A19\X0\_\X2\5C5E6027590966F4\X0\/ST24W-CKB2-220.stp','2022-09-28T06:11:12',(''),(''),'Spatial Interop R21 SP3','Kubotek KeyCreator 2011 V10.0.2 (22737)',' ');
FILE_SCHEMA(('automotive_design'));
ENDSEC;
DATA;
#1=MECHANICAL_DESIGN_GEOMETRIC_PRESENTATION_REPRESENTATION(' ',(#10,#11,#12,#13,#14,#15,#16,#17,#18,#19,#20,#21,#22,#23,#24),#6);
#2=PRODUCT_DEFINITION_CONTEXT('',#25,'design');
#3=APPLICATION_PROTOCOL_DEFINITION('INTERNATIONAL STANDARD','automotive_design',1994,#25);
#4=PRODUCT_CATEGORY_RELATIONSHIP('NONE','NONE',#26,#27);
#5=SHAPE_DEFINITION_REPRESENTATION(#28,#29);
#6= (GEOMETRIC_REPRESENTATION_CONTEXT(3)GLOBAL_UNCERTAINTY_ASSIGNED_CONTEXT((#32))GLOBAL_UNIT_ASSIGNED_CONTEXT((#34,#35,#36))REPRESENTATION_CONTEXT('NONE','WORKSPACE'));
#10=STYLED_ITEM('',(#38,#39),#40);
#11=STYLED_ITEM('',(#41),#42);
#12=STYLED_ITEM('',(#43),#44);
#13=STYLED_ITEM('',(#45,#46),#47);
#14=STYLED_ITEM('',(#48,#49),#50);
#15=STYLED_ITEM('',(#51,#52),#53);
#16=STYLED_ITEM('',(#54),#55);
#17=STYLED_ITEM('',(#56,#57),#58);
#18=STYLED_ITEM('',(#59,#60),#61);
#19=STYLED_ITEM('',(#62,#63),#64);
#20=STYLED_ITEM('',(#65,#66),#67);
#21=STYLED_ITEM('',(#68),#69);
#22=STYLED_ITEM('',(#70),#71);
#23=STYLED_ITEM('',(#72),#73);
#24=STYLED_ITEM('',(#74),#75);
#25=APPLICATION_CONTEXT(' ');
#26=PRODUCT_CATEGORY('part','NONE');
#27=PRODUCT_RELATED_PRODUCT_CATEGORY('detail',' ',(#76));
#28=PRODUCT_DEFINITION_SHAPE('NONE','NONE',#77);
#29=ADVANCED_BREP_SHAPE_REPRESENTATION('240[2]',(#58,#78),#6);
#32=UNCERTAINTY_MEASURE_WITH_UNIT(LENGTH_MEASURE(1.0E-006),#34,'','');
#34= (CONVERSION_BASED_UNIT('MILLIMETRE',#81)LENGTH_UNIT()NAMED_UNIT(#84));
#35= (NAMED_UNIT(#86)PLANE_ANGLE_UNIT()SI_UNIT($,.RADIAN.));
#36= (NAMED_UNIT(#86)SOLID_ANGLE_UNIT()SI_UNIT($,.STERADIAN.));
#38=PRESENTATION_STYLE_ASSIGNMENT((#92));
#39=PRESENTATION_STYLE_ASSIGNMENT((#93));
#40=ADVANCED_FACE('240[2]',(#94,#95),#96,.F.);
#41=PRESENTATION_STYLE_ASSIGNMENT((#97));
#42=EDGE_CURVE('240[2]',#98,#99,#100,.T.);
#43=PRESENTATION_STYLE_ASSIGNMENT((#101));
#44=EDGE_CURVE('240[2]',#102,#102,#103,.T.);
#45=PRESENTATION_STYLE_ASSIGNMENT((#104));
#46=PRESENTATION_STYLE_ASSIGNMENT((#105));
#47=ADVANCED_FACE('240[2]',(#106,#107),#108,.T.);
#48=PRESENTATION_STYLE_ASSIGNMENT((#109));
#49=PRESENTATION_STYLE_ASSIGNMENT((#110));
#50=ADVANCED_FACE('240[2]',(#111),#112,.T.);
#51=PRESENTATION_STYLE_ASSIGNMENT((#113));
#52=PRESENTATION_STYLE_ASSIGNMENT((#114));
#53=ADVANCED_FACE('240[2]',(#115,#116,#117),#118,.T.);
#54=PRESENTATION_STYLE_ASSIGNMENT((#119));
#55=EDGE_CURVE('240[2]',#120,#120,#121,.T.);
#56=PRESENTATION_STYLE_ASSIGNMENT((#122));
#57=PRESENTATION_STYLE_ASSIGNMENT((#123));
#58=MANIFOLD_SOLID_BREP('240[2]',#124);
#59=PRESENTATION_STYLE_ASSIGNMENT((#125));
#60=PRESENTATION_STYLE_ASSIGNMENT((#126));
#61=ADVANCED_FACE('240[2]',(#127,#128),#129,.F.);
#62=PRESENTATION_STYLE_ASSIGNMENT((#130));
#63=PRESENTATION_STYLE_ASSIGNMENT((#131));
#64=ADVANCED_FACE('240[2]',(#132),#133,.F.);
#65=PRESENTATION_STYLE_ASSIGNMENT((#134));
#66=PRESENTATION_STYLE_ASSIGNMENT((#135));
#67=ADVANCED_FACE('240[2]',(#136),#137,.T.);
#68=PRESENTATION_STYLE_ASSIGNMENT((#138));
#69=EDGE_CURVE('240[2]',#139,#139,#140,.T.);
#70=PRESENTATION_STYLE_ASSIGNMENT((#141));
#71=EDGE_CURVE('240[2]',#142,#142,#143,.T.);
#72=PRESENTATION_STYLE_ASSIGNMENT((#144));
#73=EDGE_CURVE('240[2]',#145,#145,#146,.T.);
#74=PRESENTATION_STYLE_ASSIGNMENT((#147));
#75=EDGE_CURVE('240[2]',#99,#98,#148,.T.);
#76=PRODUCT('240[2]','240[2]','PART-240[2]-DESC',(#149));
#77=PRODUCT_DEFINITION('NONE','NONE',#150,#2);
#78=AXIS2_PLACEMENT_3D('',#151,#152,#153);
#81=LENGTH_MEASURE_WITH_UNIT(LENGTH_MEASURE(1.0),#154);
#84=DIMENSIONAL_EXPONENTS(1.0,0.0,0.0,0.0,0.0,0.0,0.0);
#86=DIMENSIONAL_EXPONENTS(0.0,0.0,0.0,0.0,0.0,0.0,0.0);
#92=SURFACE_STYLE_USAGE(.BOTH.,#155);
#93=CURVE_STYLE('',#156,POSITIVE_LENGTH_MEASURE(1000.0),#157);
#94=FACE_BOUND('',#158,.T.);
#95=FACE_BOUND('',#159,.T.);
#96=CYLINDRICAL_SURFACE('',#160,2.6);
#97=CURVE_STYLE('',#161,POSITIVE_LENGTH_MEASURE(1000.0),#162);
#98=VERTEX_POINT('',#163);
#99=VERTEX_POINT('',#164);
#100=B_SPLINE_CURVE_WITH_KNOTS('',3,(#165,#166,#167,#168,#169,#170,#171,#172,#173,#174,#175,#176,#177,#178,#179,#180,#181,#182,#183,#184,#185,#186,#187,#188,#189,#190,#191,#192,#193,#194,#195,#196,#197,#198,#199,#200,#201,#202,#203,#204,#205,#206,#207,#208,#209,#210,#211,#212,#213,#214,#215,#216,#217,#218,#219,#220,#221,#222,#223,#224,#225,#226,#227,#228,#229,#230),.UNSPECIFIED.,.T.,.F.,(4,2,2,2,2,2,2,2,2,2,2,2,2,2,2,2,2,2,2,2,2,2,2,2,2,2,2,2,2,2,2,2,4),(0.0,0.491392780093388,0.982785560186775,1.47417834028016,1.96557112037355,2.45692572024701,2.94828032012047,3.43963491999393,3.93098951986739,4.42234411974085,4.91369871961431,5.40505331948777,5.89640791936123,6.38780069945462,6.87919347954801,7.37058625964139,7.86197903973478,8.35337181982817,8.84476459992156,9.33615738001494,9.82755016010833,10.3189047599818,10.8102593598553,11.3016139597287,11.7929685596022,12.2843231594756,12.7756777593491,13.2670323592226,13.758386959096,14.2497797391894,14.7411725192828,15.2325652993762,15.7239580794696),.UNSPECIFIED.);
#101=CURVE_STYLE('',#231,POSITIVE_LENGTH_MEASURE(1000.0),#232);
#102=VERTEX_POINT('',#233);
#103=CIRCLE('',#234,12.0);
#104=SURFACE_STYLE_USAGE(.BOTH.,#235);
#105=CURVE_STYLE('',#236,POSITIVE_LENGTH_MEASURE(1000.0),#237);
#106=FACE_BOUND('',#238,.T.);
#107=FACE_OUTER_BOUND('',#239,.T.);
#108=PLANE('',#240);
#109=SURFACE_STYLE_USAGE(.BOTH.,#241);
#110=CURVE_STYLE('',#242,POSITIVE_LENGTH_MEASURE(1000.0),#243);
#111=FACE_OUTER_BOUND('',#244,.T.);
#112=PLANE('',#245);
#113=SURFACE_STYLE_USAGE(.BOTH.,#246);
#114=CURVE_STYLE('',#247,POSITIVE_LENGTH_MEASURE(1000.0),#248);
#115=FACE_BOUND('',#249,.T.);
#116=FACE_BOUND('',#250,.T.);
#117=FACE_BOUND('',#251,.T.);
#118=CYLINDRICAL_SURFACE('',#252,12.0);
#119=CURVE_STYLE('',#253,POSITIVE_LENGTH_MEASURE(1000.0),#254);
#120=VERTEX_POINT('',#255);
#121=CIRCLE('',#256,2.6);
#122=SURFACE_STYLE_USAGE(.BOTH.,#257);
#123=CURVE_STYLE('',#258,POSITIVE_LENGTH_MEASURE(1000.0),#259);
#124=CLOSED_SHELL('',(#40,#67,#61,#64,#50,#53,#47));
#125=SURFACE_STYLE_USAGE(.BOTH.,#260);
#126=CURVE_STYLE('',#261,POSITIVE_LENGTH_MEASURE(1000.0),#262);
#127=FACE_BOUND('',#263,.T.);
#128=FACE_BOUND('',#264,.T.);
#129=CYLINDRICAL_SURFACE('',#265,7.0);
#130=SURFACE_STYLE_USAGE(.BOTH.,#266);
#131=CURVE_STYLE('',#267,POSITIVE_LENGTH_MEASURE(1000.0),#268);
#132=FACE_OUTER_BOUND('',#269,.T.);
#133=PLANE('',#270);
#134=SURFACE_STYLE_USAGE(.BOTH.,#271);
#135=CURVE_STYLE('',#272,POSITIVE_LENGTH_MEASURE(1000.0),#273);
#136=FACE_OUTER_BOUND('',#274,.T.);
#137=PLANE('',#275);
#138=CURVE_STYLE('',#276,POSITIVE_LENGTH_MEASURE(1000.0),#277);
#139=VERTEX_POINT('',#278);
#140=CIRCLE('',#279,12.0);
#141=CURVE_STYLE('',#280,POSITIVE_LENGTH_MEASURE(1000.0),#281);
#142=VERTEX_POINT('',#282);
#143=CIRCLE('',#283,7.0);
#144=CURVE_STYLE('',#284,POSITIVE_LENGTH_MEASURE(1000.0),#285);
#145=VERTEX_POINT('',#286);
#146=CIRCLE('',#287,7.0);
#147=CURVE_STYLE('',#288,POSITIVE_LENGTH_MEASURE(1000.0),#289);
#148=B_SPLINE_CURVE_WITH_KNOTS('',3,(#290,#291,#292,#293,#294,#295,#296,#297,#298,#299,#300,#301,#302,#303,#304,#305,#306,#307,#308,#309,#310,#311,#312,#313,#314,#315,#316,#317,#318,#319,#320,#321,#322,#323,#324,#325,#326,#327,#328,#329,#330,#331,#332,#333,#334,#335,#336,#337,#338,#339,#340,#341,#342,#343,#344,#345,#346,#347,#348,#349,#350,#351,#352,#353,#354,#355),.UNSPECIFIED.,.T.,.F.,(4,2,2,2,2,2,2,2,2,2,2,2,2,2,2,2,2,2,2,2,2,2,2,2,2,2,2,2,2,2,2,2,4),(0.0,0.491392780093388,0.982785560186775,1.47417834028016,1.96557112037355,2.45692572024701,2.94828032012047,3.43963491999393,3.93098951986739,4.42234411974085,4.91369871961431,5.40505331948777,5.89640791936123,6.38780069945462,6.87919347954801,7.37058625964139,7.86197903973478,8.35337181982817,8.84476459992156,9.33615738001494,9.82755016010833,10.3189047599818,10.8102593598553,11.3016139597287,11.7929685596022,12.2843231594756,12.7756777593491,13.2670323592226,13.758386959096,14.2497797391894,14.7411725192828,15.2325652993762,15.7239580794696),.UNSPECIFIED.);
#149=PRODUCT_CONTEXT('',#25,'mechanical');
#150=PRODUCT_DEFINITION_FORMATION_WITH_SPECIFIED_SOURCE(' ','NONE',#76,.NOT_KNOWN.);
#151=CARTESIAN_POINT('',(0.0,0.0,0.0));
#152=DIRECTION('',(0.0,0.0,1.0));
#153=DIRECTION('',(1.0,0.0,0.0));
#154= (NAMED_UNIT(#84)LENGTH_UNIT()SI_UNIT(.MILLI.,.METRE.));
#155=SURFACE_SIDE_STYLE('',(#357));
#156=DRAUGHTING_PRE_DEFINED_CURVE_FONT('continuous');
#157=COLOUR_RGB('',0.501960813999176,0.501960813999176,0.501960813999176);
#158=EDGE_LOOP('',(#358,#359));
#159=EDGE_LOOP('',(#360));
#160=AXIS2_PLACEMENT_3D('',#361,#362,#363);
#161=DRAUGHTING_PRE_DEFINED_CURVE_FONT('continuous');
#162=COLOUR_RGB('',0.501960813999176,0.501960813999176,0.501960813999176);
#163=CARTESIAN_POINT('',(-2.77382500006876E-015,12.0,3.9));
#164=CARTESIAN_POINT('',(-2.13700866451213E-015,12.0,9.1));
#165=CARTESIAN_POINT('',(2.6,11.714947716486,6.5));
#166=CARTESIAN_POINT('',(2.6,11.714947716486,6.66379759336446));
#167=CARTESIAN_POINT('',(2.5842718483291,11.7184760752339,6.83301698475191));
#168=CARTESIAN_POINT('',(2.51821521457459,11.7328485307004,7.16929323314495));
#169=CARTESIAN_POINT('',(2.46790277363863,11.7436813147597,7.33635372441044));
#170=CARTESIAN_POINT('',(2.33507495818762,11.7708121925983,7.65648468037343));
#171=CARTESIAN_POINT('',(2.25245399160521,11.7871051895351,7.80982005523359));
#172=CARTESIAN_POINT('',(2.06172836537446,11.8219572778888,8.09325255679755));
#173=CARTESIAN_POINT('',(1.95361024270728,11.8404806132573,8.22334501946277));
#174=CARTESIAN_POINT('',(1.7233539650326,11.8761788103437,8.45360129713745));
#175=CARTESIAN_POINT('',(1.59326566096718,11.894615867168,8.56171842088604));
#176=CARTESIAN_POINT('',(1.3098305515056,11.9291544553718,8.75244805493825));
#177=CARTESIAN_POINT('',(1.15648841585553,11.9452222879364,8.83507360541592));
#178=CARTESIAN_POINT('',(0.836344253502773,11.9718974791246,8.96790650613339));
#179=CARTESIAN_POINT('',(0.669277516241325,11.9825033991715,9.01821943562407));
#180=CARTESIAN_POINT('',(0.332999572354546,11.9965591479272,9.08427413494275));
#181=CARTESIAN_POINT('',(0.163784866624485,12.0,9.09999999999999));
#182=CARTESIAN_POINT('',(-0.163784866624489,12.0,9.09999999999999));
#183=CARTESIAN_POINT('',(-0.33299957235455,11.9965591479272,9.08427413494275));
#184=CARTESIAN_POINT('',(-0.669277516241329,11.9825033991715,9.01821943562407));
#185=CARTESIAN_POINT('',(-0.836344253502777,11.9718974791246,8.96790650613339));
#186=CARTESIAN_POINT('',(-1.15648841585553,11.9452222879364,8.83507360541592));
#187=CARTESIAN_POINT('',(-1.3098305515056,11.9291544553718,8.75244805493825));
#188=CARTESIAN_POINT('',(-1.59326566096719,11.894615867168,8.56171842088604));
#189=CARTESIAN_POINT('',(-1.72335396503261,11.8761788103437,8.45360129713745));
#190=CARTESIAN_POINT('',(-1.95361024270728,11.8404806132573,8.22334501946277));
#191=CARTESIAN_POINT('',(-2.06172836537447,11.8219572778888,8.09325255679754));
#192=CARTESIAN_POINT('',(-2.25245399160521,11.7871051895351,7.80982005523359));
#193=CARTESIAN_POINT('',(-2.33507495818762,11.7708121925983,7.65648468037343));
#194=CARTESIAN_POINT('',(-2.46790277363864,11.7436813147597,7.33635372441044));
#195=CARTESIAN_POINT('',(-2.51821521457459,11.7328485307004,7.16929323314495));
#196=CARTESIAN_POINT('',(-2.58427184832911,11.7184760752339,6.83301698475191));
#197=CARTESIAN_POINT('',(-2.6,11.714947716486,6.66379759336446));
#198=CARTESIAN_POINT('',(-2.6,11.714947716486,6.33620240663554));
#199=CARTESIAN_POINT('',(-2.58427184832911,11.7184760752339,6.16698301524809));
#200=CARTESIAN_POINT('',(-2.51821521457459,11.7328485307004,5.83070676685505));
#201=CARTESIAN_POINT('',(-2.46790277363864,11.7436813147597,5.66364627558956));
#202=CARTESIAN_POINT('',(-2.33507495818762,11.7708121925983,5.34351531962657));
#203=CARTESIAN_POINT('',(-2.25245399160521,11.7871051895351,5.19017994476641));
#204=CARTESIAN_POINT('',(-2.06172836537447,11.8219572778888,4.90674744320245));
#205=CARTESIAN_POINT('',(-1.95361024270728,11.8404806132573,4.77665498053723));
#206=CARTESIAN_POINT('',(-1.72335396503261,11.8761788103437,4.54639870286255));
#207=CARTESIAN_POINT('',(-1.59326566096719,11.894615867168,4.43828157911397));
#208=CARTESIAN_POINT('',(-1.30983055150561,11.9291544553718,4.24755194506175));
#209=CARTESIAN_POINT('',(-1.15648841585554,11.9452222879364,4.16492639458408));
#210=CARTESIAN_POINT('',(-0.836344253502777,11.9718974791246,4.03209349386661));
#211=CARTESIAN_POINT('',(-0.669277516241329,11.9825033991715,3.98178056437593));
#212=CARTESIAN_POINT('',(-0.33299957235455,11.9965591479273,3.91572586505725));
#213=CARTESIAN_POINT('',(-0.163784866624489,12.0,3.90000000000001));
#214=CARTESIAN_POINT('',(0.163784866624484,12.0,3.90000000000001));
#215=CARTESIAN_POINT('',(0.332999572354544,11.9965591479273,3.91572586505725));
#216=CARTESIAN_POINT('',(0.669277516241324,11.9825033991715,3.98178056437593));
#217=CARTESIAN_POINT('',(0.836344253502772,11.9718974791246,4.03209349386661));
#218=CARTESIAN_POINT('',(1.15648841585553,11.9452222879364,4.16492639458408));
#219=CARTESIAN_POINT('',(1.3098305515056,11.9291544553718,4.24755194506175));
#220=CARTESIAN_POINT('',(1.59326566096719,11.894615867168,4.43828157911397));
#221=CARTESIAN_POINT('',(1.7233539650326,11.8761788103437,4.54639870286255));
#222=CARTESIAN_POINT('',(1.95361024270728,11.8404806132573,4.77665498053723));
#223=CARTESIAN_POINT('',(2.06172836537446,11.8219572778888,4.90674744320245));
#224=CARTESIAN_POINT('',(2.25245399160521,11.7871051895351,5.19017994476641));
#225=CARTESIAN_POINT('',(2.33507495818762,11.7708121925983,5.34351531962657));
#226=CARTESIAN_POINT('',(2.46790277363863,11.7436813147597,5.66364627558956));
#227=CARTESIAN_POINT('',(2.51821521457459,11.7328485307004,5.83070676685505));
#228=CARTESIAN_POINT('',(2.5842718483291,11.7184760752339,6.16698301524809));
#229=CARTESIAN_POINT('',(2.6,11.714947716486,6.33620240663554));
#230=CARTESIAN_POINT('',(2.6,11.714947716486,6.5));
#231=DRAUGHTING_PRE_DEFINED_CURVE_FONT('continuous');
#232=COLOUR_RGB('',0.501960813999176,0.501960813999176,0.501960813999176);
#233=CARTESIAN_POINT('',(-1.34711147906209E-014,12.0,220.0));
#234=AXIS2_PLACEMENT_3D('',#364,#365,#366);
#235=SURFACE_SIDE_STYLE('',(#367));
#236=DRAUGHTING_PRE_DEFINED_CURVE_FONT('continuous');
#237=COLOUR_RGB('',0.501960813999176,0.501960813999176,0.501960813999176);
#238=EDGE_LOOP('',(#368));
#239=EDGE_LOOP('',(#369));
#240=AXIS2_PLACEMENT_3D('',#370,#371,#372);
#241=SURFACE_SIDE_STYLE('',(#373));
#242=DRAUGHTING_PRE_DEFINED_CURVE_FONT('continuous');
#243=COLOUR_RGB('',0.501960813999176,0.501960813999176,0.501960813999176);
#244=EDGE_LOOP('',(#374));
#245=AXIS2_PLACEMENT_3D('',#375,#376,#377);
#246=SURFACE_SIDE_STYLE('',(#378));
#247=DRAUGHTING_PRE_DEFINED_CURVE_FONT('continuous');
#248=COLOUR_RGB('',0.501960813999176,0.501960813999176,0.501960813999176);
#249=EDGE_LOOP('',(#379,#380));
#250=EDGE_LOOP('',(#381));
#251=EDGE_LOOP('',(#382));
#252=AXIS2_PLACEMENT_3D('',#383,#384,#385);
#253=DRAUGHTING_PRE_DEFINED_CURVE_FONT('continuous');
#254=COLOUR_RGB('',0.501960813999176,0.501960813999176,0.501960813999176);
#255=CARTESIAN_POINT('',(2.6,11.7,6.5));
#256=AXIS2_PLACEMENT_3D('',#386,#387,#388);
#257=SURFACE_SIDE_STYLE('',(#389));
#258=DRAUGHTING_PRE_DEFINED_CURVE_FONT('continuous');
#259=COLOUR_RGB('',0.501960813999176,0.501960813999176,0.501960813999176);
#260=SURFACE_SIDE_STYLE('',(#390));
#261=DRAUGHTING_PRE_DEFINED_CURVE_FONT('continuous');
#262=COLOUR_RGB('',0.501960813999176,0.501960813999176,0.501960813999176);
#263=EDGE_LOOP('',(#391));
#264=EDGE_LOOP('',(#392));
#265=AXIS2_PLACEMENT_3D('',#393,#394,#395);
#266=SURFACE_SIDE_STYLE('',(#396));
#267=DRAUGHTING_PRE_DEFINED_CURVE_FONT('continuous');
#268=COLOUR_RGB('',0.501960813999176,0.501960813999176,0.501960813999176);
#269=EDGE_LOOP('',(#397));
#270=AXIS2_PLACEMENT_3D('',#398,#399,#400);
#271=SURFACE_SIDE_STYLE('',(#401));
#272=DRAUGHTING_PRE_DEFINED_CURVE_FONT('continuous');
#273=COLOUR_RGB('',0.501960813999176,0.501960813999176,0.501960813999176);
#274=EDGE_LOOP('',(#402));
#275=AXIS2_PLACEMENT_3D('',#403,#404,#405);
#276=DRAUGHTING_PRE_DEFINED_CURVE_FONT('continuous');
#277=COLOUR_RGB('',0.501960813999176,0.501960813999176,0.501960813999176);
#278=CARTESIAN_POINT('',(1.59241635428308E-030,12.0,-2.69521332714272E-014));
#279=AXIS2_PLACEMENT_3D('',#406,#407,#408);
#280=DRAUGHTING_PRE_DEFINED_CURVE_FONT('continuous');
#281=COLOUR_RGB('',0.501960813999176,0.501960813999176,0.501960813999176);
#282=CARTESIAN_POINT('',(7.0,0.0,17.5));
#283=AXIS2_PLACEMENT_3D('',#409,#410,#411);
#284=DRAUGHTING_PRE_DEFINED_CURVE_FONT('continuous');
#285=COLOUR_RGB('',0.501960813999176,0.501960813999176,0.501960813999176);
#286=CARTESIAN_POINT('',(7.0,0.0,0.0));
#287=AXIS2_PLACEMENT_3D('',#412,#413,#414);
#288=DRAUGHTING_PRE_DEFINED_CURVE_FONT('continuous');
#289=COLOUR_RGB('',0.501960813999176,0.501960813999176,0.501960813999176);
#290=CARTESIAN_POINT('',(2.6,11.714947716486,6.5));
#291=CARTESIAN_POINT('',(2.6,11.714947716486,6.66379759336446));
#292=CARTESIAN_POINT('',(2.5842718483291,11.7184760752339,6.83301698475191));
#293=CARTESIAN_POINT('',(2.51821521457459,11.7328485307004,7.16929323314495));
#294=CARTESIAN_POINT('',(2.46790277363863,11.7436813147597,7.33635372441044));
#295=CARTESIAN_POINT('',(2.33507495818762,11.7708121925983,7.65648468037343));
#296=CARTESIAN_POINT('',(2.25245399160521,11.7871051895351,7.80982005523359));
#297=CARTESIAN_POINT('',(2.06172836537446,11.8219572778888,8.09325255679755));
#298=CARTESIAN_POINT('',(1.95361024270728,11.8404806132573,8.22334501946277));
#299=CARTESIAN_POINT('',(1.7233539650326,11.8761788103437,8.45360129713745));
#300=CARTESIAN_POINT('',(1.59326566096718,11.894615867168,8.56171842088604));
#301=CARTESIAN_POINT('',(1.3098305515056,11.9291544553718,8.75244805493825));
#302=CARTESIAN_POINT('',(1.15648841585553,11.9452222879364,8.83507360541592));
#303=CARTESIAN_POINT('',(0.836344253502773,11.9718974791246,8.96790650613339));
#304=CARTESIAN_POINT('',(0.669277516241325,11.9825033991715,9.01821943562407));
#305=CARTESIAN_POINT('',(0.332999572354546,11.9965591479272,9.08427413494275));
#306=CARTESIAN_POINT('',(0.163784866624485,12.0,9.09999999999999));
#307=CARTESIAN_POINT('',(-0.163784866624489,12.0,9.09999999999999));
#308=CARTESIAN_POINT('',(-0.33299957235455,11.9965591479272,9.08427413494275));
#309=CARTESIAN_POINT('',(-0.669277516241329,11.9825033991715,9.01821943562407));
#310=CARTESIAN_POINT('',(-0.836344253502777,11.9718974791246,8.96790650613339));
#311=CARTESIAN_POINT('',(-1.15648841585553,11.9452222879364,8.83507360541592));
#312=CARTESIAN_POINT('',(-1.3098305515056,11.9291544553718,8.75244805493825));
#313=CARTESIAN_POINT('',(-1.59326566096719,11.894615867168,8.56171842088604));
#314=CARTESIAN_POINT('',(-1.72335396503261,11.8761788103437,8.45360129713745));
#315=CARTESIAN_POINT('',(-1.95361024270728,11.8404806132573,8.22334501946277));
#316=CARTESIAN_POINT('',(-2.06172836537447,11.8219572778888,8.09325255679754));
#317=CARTESIAN_POINT('',(-2.25245399160521,11.7871051895351,7.80982005523359));
#318=CARTESIAN_POINT('',(-2.33507495818762,11.7708121925983,7.65648468037343));
#319=CARTESIAN_POINT('',(-2.46790277363864,11.7436813147597,7.33635372441044));
#320=CARTESIAN_POINT('',(-2.51821521457459,11.7328485307004,7.16929323314495));
#321=CARTESIAN_POINT('',(-2.58427184832911,11.7184760752339,6.83301698475191));
#322=CARTESIAN_POINT('',(-2.6,11.714947716486,6.66379759336446));
#323=CARTESIAN_POINT('',(-2.6,11.714947716486,6.33620240663554));
#324=CARTESIAN_POINT('',(-2.58427184832911,11.7184760752339,6.16698301524809));
#325=CARTESIAN_POINT('',(-2.51821521457459,11.7328485307004,5.83070676685505));
#326=CARTESIAN_POINT('',(-2.46790277363864,11.7436813147597,5.66364627558956));
#327=CARTESIAN_POINT('',(-2.33507495818762,11.7708121925983,5.34351531962657));
#328=CARTESIAN_POINT('',(-2.25245399160521,11.7871051895351,5.19017994476641));
#329=CARTESIAN_POINT('',(-2.06172836537447,11.8219572778888,4.90674744320245));
#330=CARTESIAN_POINT('',(-1.95361024270728,11.8404806132573,4.77665498053723));
#331=CARTESIAN_POINT('',(-1.72335396503261,11.8761788103437,4.54639870286255));
#332=CARTESIAN_POINT('',(-1.59326566096719,11.894615867168,4.43828157911397));
#333=CARTESIAN_POINT('',(-1.30983055150561,11.9291544553718,4.24755194506175));
#334=CARTESIAN_POINT('',(-1.15648841585554,11.9452222879364,4.16492639458408));
#335=CARTESIAN_POINT('',(-0.836344253502777,11.9718974791246,4.03209349386661));
#336=CARTESIAN_POINT('',(-0.669277516241329,11.9825033991715,3.98178056437593));
#337=CARTESIAN_POINT('',(-0.33299957235455,11.9965591479273,3.91572586505725));
#338=CARTESIAN_POINT('',(-0.163784866624489,12.0,3.90000000000001));
#339=CARTESIAN_POINT('',(0.163784866624484,12.0,3.90000000000001));
#340=CARTESIAN_POINT('',(0.332999572354544,11.9965591479273,3.91572586505725));
#341=CARTESIAN_POINT('',(0.669277516241324,11.9825033991715,3.98178056437593));
#342=CARTESIAN_POINT('',(0.836344253502772,11.9718974791246,4.03209349386661));
#343=CARTESIAN_POINT('',(1.15648841585553,11.9452222879364,4.16492639458408));
#344=CARTESIAN_POINT('',(1.3098305515056,11.9291544553718,4.24755194506175));
#345=CARTESIAN_POINT('',(1.59326566096719,11.894615867168,4.43828157911397));
#346=CARTESIAN_POINT('',(1.7233539650326,11.8761788103437,4.54639870286255));
#347=CARTESIAN_POINT('',(1.95361024270728,11.8404806132573,4.77665498053723));
#348=CARTESIAN_POINT('',(2.06172836537446,11.8219572778888,4.90674744320245));
#349=CARTESIAN_POINT('',(2.25245399160521,11.7871051895351,5.19017994476641));
#350=CARTESIAN_POINT('',(2.33507495818762,11.7708121925983,5.34351531962657));
#351=CARTESIAN_POINT('',(2.46790277363863,11.7436813147597,5.66364627558956));
#352=CARTESIAN_POINT('',(2.51821521457459,11.7328485307004,5.83070676685505));
#353=CARTESIAN_POINT('',(2.5842718483291,11.7184760752339,6.16698301524809));
#354=CARTESIAN_POINT('',(2.6,11.714947716486,6.33620240663554));
#355=CARTESIAN_POINT('',(2.6,11.714947716486,6.5));
#357=SURFACE_STYLE_FILL_AREA(#415);
#358=ORIENTED_EDGE('',*,*,#75,.F.);
#359=ORIENTED_EDGE('',*,*,#42,.F.);
#360=ORIENTED_EDGE('',*,*,#55,.F.);
#361=CARTESIAN_POINT('',(-2.29621274840129E-015,12.0,6.5));
#362=DIRECTION('',(0.0,-1.0,0.0));
#363=DIRECTION('',(1.0,0.0,0.0));
#364=CARTESIAN_POINT('',(-1.34711147906209E-014,-2.69422295812418E-014,220.0));
#365=DIRECTION('',(6.12323399573677E-017,1.22464679914735E-016,-1.0));
#366=DIRECTION('',(-1.23259516440783E-032,1.0,1.22464679914735E-016));
#367=SURFACE_STYLE_FILL_AREA(#416);
#368=ORIENTED_EDGE('',*,*,#73,.T.);
#369=ORIENTED_EDGE('',*,*,#69,.T.);
#370=CARTESIAN_POINT('',(7.9620817714154E-031,6.0,-1.34760666357136E-014));
#371=DIRECTION('',(6.12323399573677E-017,-2.24601110595227E-015,-1.0));
#372=DIRECTION('',(0.0,-1.0,2.24601110595227E-015));
#373=SURFACE_STYLE_FILL_AREA(#417);
#374=ORIENTED_EDGE('',*,*,#44,.F.);
#375=CARTESIAN_POINT('',(-1.34711147906209E-014,5.99999999999997,220.0));
#376=DIRECTION('',(-9.18338008663382E-049,-1.22464679914735E-016,1.0));
#377=DIRECTION('',(1.0,-7.49879891330927E-033,0.0));
#378=SURFACE_STYLE_FILL_AREA(#418);
#379=ORIENTED_EDGE('',*,*,#75,.T.);
#380=ORIENTED_EDGE('',*,*,#42,.T.);
#381=ORIENTED_EDGE('',*,*,#69,.F.);
#382=ORIENTED_EDGE('',*,*,#44,.T.);
#383=CARTESIAN_POINT('',(-6.73555739531044E-015,-1.34711147906209E-014,110.0));
#384=DIRECTION('',(-6.12323399573677E-017,-1.22464679914735E-016,1.0));
#385=DIRECTION('',(-1.23259516440783E-032,1.0,1.22464679914735E-016));
#386=CARTESIAN_POINT('',(-2.29621274840129E-015,11.7,6.5));
#387=DIRECTION('',(-0.0,1.0,0.0));
#388=DIRECTION('',(1.0,0.0,0.0));
#389=SURFACE_STYLE_FILL_AREA(#419);
#390=SURFACE_STYLE_FILL_AREA(#420);
#391=ORIENTED_EDGE('',*,*,#71,.F.);
#392=ORIENTED_EDGE('',*,*,#73,.F.);
#393=CARTESIAN_POINT('',(0.0,0.0,0.0));
#394=DIRECTION('',(0.0,0.0,-1.0));
#395=DIRECTION('',(1.0,0.0,0.0));
#396=SURFACE_STYLE_FILL_AREA(#421);
#397=ORIENTED_EDGE('',*,*,#71,.T.);
#398=CARTESIAN_POINT('',(1.24001162272598,6.88929395333836,17.5));
#399=DIRECTION('',(0.0,0.0,1.0));
#400=DIRECTION('',(1.0,0.0,0.0));
#401=SURFACE_STYLE_FILL_AREA(#422);
#402=ORIENTED_EDGE('',*,*,#55,.T.);
#403=CARTESIAN_POINT('',(0.460575745583933,11.7,3.94111938876));
#404=DIRECTION('',(-0.0,1.0,0.0));
#405=DIRECTION('',(1.0,0.0,0.0));
#406=CARTESIAN_POINT('',(1.74032777401202E-030,3.48065554802404E-030,-2.8421709430404E-014));
#407=DIRECTION('',(6.12323399573677E-017,1.22464679914735E-016,-1.0));
#408=DIRECTION('',(-1.23259516440783E-032,1.0,1.22464679914735E-016));
#409=CARTESIAN_POINT('',(0.0,0.0,17.5));
#410=DIRECTION('',(0.0,0.0,-1.0));
#411=DIRECTION('',(1.0,0.0,0.0));
#412=CARTESIAN_POINT('',(0.0,0.0,-1.34760666357136E-014));
#413=DIRECTION('',(-6.12323399573677E-017,2.24601110595227E-015,1.0));
#414=DIRECTION('',(1.0,1.37528515587693E-031,6.12323399573677E-017));
#415=FILL_AREA_STYLE('',(#423));
#416=FILL_AREA_STYLE('',(#424));
#417=FILL_AREA_STYLE('',(#425));
#418=FILL_AREA_STYLE('',(#426));
#419=FILL_AREA_STYLE('',(#427));
#420=FILL_AREA_STYLE('',(#428));
#421=FILL_AREA_STYLE('',(#429));
#422=FILL_AREA_STYLE('',(#430));
#423=FILL_AREA_STYLE_COLOUR('',#431);
#424=FILL_AREA_STYLE_COLOUR('',#432);
#425=FILL_AREA_STYLE_COLOUR('',#433);
#426=FILL_AREA_STYLE_COLOUR('',#434);
#427=FILL_AREA_STYLE_COLOUR('',#435);
#428=FILL_AREA_STYLE_COLOUR('',#436);
#429=FILL_AREA_STYLE_COLOUR('',#437);
#430=FILL_AREA_STYLE_COLOUR('',#438);
#431=COLOUR_RGB('',0.501960813999176,0.501960813999176,0.501960813999176);
#432=COLOUR_RGB('',0.501960813999176,0.501960813999176,0.501960813999176);
#433=COLOUR_RGB('',0.501960813999176,0.501960813999176,0.501960813999176);
#434=COLOUR_RGB('',0.501960813999176,0.501960813999176,0.501960813999176);
#435=COLOUR_RGB('',0.501960813999176,0.501960813999176,0.501960813999176);
#436=COLOUR_RGB('',0.501960813999176,0.501960813999176,0.501960813999176);
#437=COLOUR_RGB('',0.501960813999176,0.501960813999176,0.501960813999176);
#438=COLOUR_RGB('',0.501960813999176,0.501960813999176,0.501960813999176);
ENDSEC;
END-ISO-10303-21;
