ISO-10303-21;
HEADER;
FILE_DESCRIPTION((''),'1');
FILE_NAME('T:/00_BIG-HP\X2\FF71FF6FFF8CFF9F\X0\/2022_\X2\30C030A630F330ED30FC30C930C730FC30BF\X0\/02_STEP\X2\FF83FF9EFF70FF80\X0\/LINK\X2\7528FF83FF9EFF70FF80FF8EFF99FF80FF9E\X0\/CK\X2\FF8DFF6FFF84FF9E30FBFF71FF78FF7EFF7BFF98\X0\/11_CK\X2\8D85786CFF7DFF84FF9AFF70FF84FF7CFF6CFF9DFF78\X0\/01_CK\X2\8D85786CFF7DFF84FF9AFF70FF84FF7CFF6CFF9DFF78\X0\/\X2\5EA76A19\X0\_\X2\5C5E6027590966F4\X0\/ST24W-CKB2-160.stp','2022-09-28T06:00:47',(''),(''),'Spatial Interop R21 SP3','Kubotek KeyCreator 2011 V10.0.2 (22737)',' ');
FILE_SCHEMA(('automotive_design'));
ENDSEC;
DATA;
#1=MECHANICAL_DESIGN_GEOMETRIC_PRESENTATION_REPRESENTATION(' ',(#10,#11,#12,#13,#14,#15,#16,#17,#18,#19,#20,#21,#22,#23,#24),#6);
#2=PRODUCT_DEFINITION_CONTEXT('',#25,'design');
#3=APPLICATION_PROTOCOL_DEFINITION('INTERNATIONAL STANDARD','automotive_design',1994,#25);
#4=PRODUCT_CATEGORY_RELATIONSHIP('NONE','NONE',#26,#27);
#5=SHAPE_DEFINITION_REPRESENTATION(#28,#29);
#6= (GEOMETRIC_REPRESENTATION_CONTEXT(3)GLOBAL_UNCERTAINTY_ASSIGNED_CONTEXT((#32))GLOBAL_UNIT_ASSIGNED_CONTEXT((#34,#35,#36))REPRESENTATION_CONTEXT('NONE','WORKSPACE'));
#10=STYLED_ITEM('',(#38,#39),#40);
#11=STYLED_ITEM('',(#41,#42),#43);
#12=STYLED_ITEM('',(#44,#45),#46);
#13=STYLED_ITEM('',(#47),#48);
#14=STYLED_ITEM('',(#49),#50);
#15=STYLED_ITEM('',(#51,#52),#53);
#16=STYLED_ITEM('',(#54,#55),#56);
#17=STYLED_ITEM('',(#57),#58);
#18=STYLED_ITEM('',(#59),#60);
#19=STYLED_ITEM('',(#61,#62),#63);
#20=STYLED_ITEM('',(#64,#65),#66);
#21=STYLED_ITEM('',(#67,#68),#69);
#22=STYLED_ITEM('',(#70),#71);
#23=STYLED_ITEM('',(#72),#73);
#24=STYLED_ITEM('',(#74),#75);
#25=APPLICATION_CONTEXT(' ');
#26=PRODUCT_CATEGORY('part','NONE');
#27=PRODUCT_RELATED_PRODUCT_CATEGORY('detail',' ',(#76));
#28=PRODUCT_DEFINITION_SHAPE('NONE','NONE',#77);
#29=ADVANCED_BREP_SHAPE_REPRESENTATION('240[2]',(#53,#78),#6);
#32=UNCERTAINTY_MEASURE_WITH_UNIT(LENGTH_MEASURE(1.0E-006),#34,'','');
#34= (CONVERSION_BASED_UNIT('MILLIMETRE',#81)LENGTH_UNIT()NAMED_UNIT(#84));
#35= (NAMED_UNIT(#86)PLANE_ANGLE_UNIT()SI_UNIT($,.RADIAN.));
#36= (NAMED_UNIT(#86)SOLID_ANGLE_UNIT()SI_UNIT($,.STERADIAN.));
#38=PRESENTATION_STYLE_ASSIGNMENT((#92));
#39=PRESENTATION_STYLE_ASSIGNMENT((#93));
#40=ADVANCED_FACE('240[2]',(#94),#95,.T.);
#41=PRESENTATION_STYLE_ASSIGNMENT((#96));
#42=PRESENTATION_STYLE_ASSIGNMENT((#97));
#43=ADVANCED_FACE('240[2]',(#98),#99,.F.);
#44=PRESENTATION_STYLE_ASSIGNMENT((#100));
#45=PRESENTATION_STYLE_ASSIGNMENT((#101));
#46=ADVANCED_FACE('240[2]',(#102,#103),#104,.F.);
#47=PRESENTATION_STYLE_ASSIGNMENT((#105));
#48=EDGE_CURVE('240[2]',#106,#106,#107,.T.);
#49=PRESENTATION_STYLE_ASSIGNMENT((#108));
#50=EDGE_CURVE('240[2]',#109,#109,#110,.T.);
#51=PRESENTATION_STYLE_ASSIGNMENT((#111));
#52=PRESENTATION_STYLE_ASSIGNMENT((#112));
#53=MANIFOLD_SOLID_BREP('240[2]',#113);
#54=PRESENTATION_STYLE_ASSIGNMENT((#114));
#55=PRESENTATION_STYLE_ASSIGNMENT((#115));
#56=ADVANCED_FACE('240[2]',(#116,#117),#118,.F.);
#57=PRESENTATION_STYLE_ASSIGNMENT((#119));
#58=EDGE_CURVE('240[2]',#120,#120,#121,.T.);
#59=PRESENTATION_STYLE_ASSIGNMENT((#122));
#60=EDGE_CURVE('240[2]',#123,#123,#124,.T.);
#61=PRESENTATION_STYLE_ASSIGNMENT((#125));
#62=PRESENTATION_STYLE_ASSIGNMENT((#126));
#63=ADVANCED_FACE('240[2]',(#127,#128,#129),#130,.T.);
#64=PRESENTATION_STYLE_ASSIGNMENT((#131));
#65=PRESENTATION_STYLE_ASSIGNMENT((#132));
#66=ADVANCED_FACE('240[2]',(#133,#134),#135,.T.);
#67=PRESENTATION_STYLE_ASSIGNMENT((#136));
#68=PRESENTATION_STYLE_ASSIGNMENT((#137));
#69=ADVANCED_FACE('240[2]',(#138),#139,.T.);
#70=PRESENTATION_STYLE_ASSIGNMENT((#140));
#71=EDGE_CURVE('240[2]',#141,#142,#143,.T.);
#72=PRESENTATION_STYLE_ASSIGNMENT((#144));
#73=EDGE_CURVE('240[2]',#145,#145,#146,.T.);
#74=PRESENTATION_STYLE_ASSIGNMENT((#147));
#75=EDGE_CURVE('240[2]',#142,#141,#148,.T.);
#76=PRODUCT('240[2]','240[2]','PART-240[2]-DESC',(#149));
#77=PRODUCT_DEFINITION('NONE','NONE',#150,#2);
#78=AXIS2_PLACEMENT_3D('',#151,#152,#153);
#81=LENGTH_MEASURE_WITH_UNIT(LENGTH_MEASURE(1.0),#154);
#84=DIMENSIONAL_EXPONENTS(1.0,0.0,0.0,0.0,0.0,0.0,0.0);
#86=DIMENSIONAL_EXPONENTS(0.0,0.0,0.0,0.0,0.0,0.0,0.0);
#92=SURFACE_STYLE_USAGE(.BOTH.,#155);
#93=CURVE_STYLE('',#156,POSITIVE_LENGTH_MEASURE(1000.0),#157);
#94=FACE_OUTER_BOUND('',#158,.T.);
#95=PLANE('',#159);
#96=SURFACE_STYLE_USAGE(.BOTH.,#160);
#97=CURVE_STYLE('',#161,POSITIVE_LENGTH_MEASURE(1000.0),#162);
#98=FACE_OUTER_BOUND('',#163,.T.);
#99=PLANE('',#164);
#100=SURFACE_STYLE_USAGE(.BOTH.,#165);
#101=CURVE_STYLE('',#166,POSITIVE_LENGTH_MEASURE(1000.0),#167);
#102=FACE_BOUND('',#168,.T.);
#103=FACE_BOUND('',#169,.T.);
#104=CYLINDRICAL_SURFACE('',#170,2.6);
#105=CURVE_STYLE('',#171,POSITIVE_LENGTH_MEASURE(1000.0),#172);
#106=VERTEX_POINT('',#173);
#107=CIRCLE('',#174,2.6);
#108=CURVE_STYLE('',#175,POSITIVE_LENGTH_MEASURE(1000.0),#176);
#109=VERTEX_POINT('',#177);
#110=CIRCLE('',#178,12.0);
#111=SURFACE_STYLE_USAGE(.BOTH.,#179);
#112=CURVE_STYLE('',#180,POSITIVE_LENGTH_MEASURE(1000.0),#181);
#113=CLOSED_SHELL('',(#46,#69,#56,#43,#40,#63,#66));
#114=SURFACE_STYLE_USAGE(.BOTH.,#182);
#115=CURVE_STYLE('',#183,POSITIVE_LENGTH_MEASURE(1000.0),#184);
#116=FACE_BOUND('',#185,.T.);
#117=FACE_BOUND('',#186,.T.);
#118=CYLINDRICAL_SURFACE('',#187,7.0);
#119=CURVE_STYLE('',#188,POSITIVE_LENGTH_MEASURE(1000.0),#189);
#120=VERTEX_POINT('',#190);
#121=CIRCLE('',#191,12.0);
#122=CURVE_STYLE('',#192,POSITIVE_LENGTH_MEASURE(1000.0),#193);
#123=VERTEX_POINT('',#194);
#124=CIRCLE('',#195,7.0);
#125=SURFACE_STYLE_USAGE(.BOTH.,#196);
#126=CURVE_STYLE('',#197,POSITIVE_LENGTH_MEASURE(1000.0),#198);
#127=FACE_BOUND('',#199,.T.);
#128=FACE_BOUND('',#200,.T.);
#129=FACE_BOUND('',#201,.T.);
#130=CYLINDRICAL_SURFACE('',#202,12.0);
#131=SURFACE_STYLE_USAGE(.BOTH.,#203);
#132=CURVE_STYLE('',#204,POSITIVE_LENGTH_MEASURE(1000.0),#205);
#133=FACE_BOUND('',#206,.T.);
#134=FACE_OUTER_BOUND('',#207,.T.);
#135=PLANE('',#208);
#136=SURFACE_STYLE_USAGE(.BOTH.,#209);
#137=CURVE_STYLE('',#210,POSITIVE_LENGTH_MEASURE(1000.0),#211);
#138=FACE_OUTER_BOUND('',#212,.T.);
#139=PLANE('',#213);
#140=CURVE_STYLE('',#214,POSITIVE_LENGTH_MEASURE(1000.0),#215);
#141=VERTEX_POINT('',#216);
#142=VERTEX_POINT('',#217);
#143=B_SPLINE_CURVE_WITH_KNOTS('',3,(#218,#219,#220,#221,#222,#223,#224,#225,#226,#227,#228,#229,#230,#231,#232,#233,#234,#235,#236,#237,#238,#239,#240,#241,#242,#243,#244,#245,#246,#247,#248,#249,#250,#251,#252,#253,#254,#255,#256,#257,#258,#259,#260,#261,#262,#263,#264,#265,#266,#267,#268,#269,#270,#271,#272,#273,#274,#275,#276,#277,#278,#279,#280,#281,#282,#283),.UNSPECIFIED.,.T.,.F.,(4,2,2,2,2,2,2,2,2,2,2,2,2,2,2,2,2,2,2,2,2,2,2,2,2,2,2,2,2,2,2,2,4),(0.0,0.491392780093388,0.982785560186775,1.47417834028016,1.96557112037355,2.45692572024701,2.94828032012047,3.43963491999393,3.93098951986739,4.42234411974085,4.91369871961431,5.40505331948777,5.89640791936123,6.38780069945462,6.87919347954801,7.37058625964139,7.86197903973478,8.35337181982817,8.84476459992156,9.33615738001494,9.82755016010833,10.3189047599818,10.8102593598553,11.3016139597287,11.7929685596022,12.2843231594756,12.7756777593491,13.2670323592226,13.758386959096,14.2497797391894,14.7411725192828,15.2325652993762,15.7239580794696),.UNSPECIFIED.);
#144=CURVE_STYLE('',#284,POSITIVE_LENGTH_MEASURE(1000.0),#285);
#145=VERTEX_POINT('',#286);
#146=CIRCLE('',#287,7.0);
#147=CURVE_STYLE('',#288,POSITIVE_LENGTH_MEASURE(1000.0),#289);
#148=B_SPLINE_CURVE_WITH_KNOTS('',3,(#290,#291,#292,#293,#294,#295,#296,#297,#298,#299,#300,#301,#302,#303,#304,#305,#306,#307,#308,#309,#310,#311,#312,#313,#314,#315,#316,#317,#318,#319,#320,#321,#322,#323,#324,#325,#326,#327,#328,#329,#330,#331,#332,#333,#334,#335,#336,#337,#338,#339,#340,#341,#342,#343,#344,#345,#346,#347,#348,#349,#350,#351,#352,#353,#354,#355),.UNSPECIFIED.,.T.,.F.,(4,2,2,2,2,2,2,2,2,2,2,2,2,2,2,2,2,2,2,2,2,2,2,2,2,2,2,2,2,2,2,2,4),(0.0,0.491392780093388,0.982785560186775,1.47417834028016,1.96557112037355,2.45692572024701,2.94828032012047,3.43963491999393,3.93098951986739,4.42234411974085,4.91369871961431,5.40505331948777,5.89640791936123,6.38780069945462,6.87919347954801,7.37058625964139,7.86197903973478,8.35337181982817,8.84476459992156,9.33615738001494,9.82755016010833,10.3189047599818,10.8102593598553,11.3016139597287,11.7929685596022,12.2843231594756,12.7756777593491,13.2670323592226,13.758386959096,14.2497797391894,14.7411725192828,15.2325652993762,15.7239580794696),.UNSPECIFIED.);
#149=PRODUCT_CONTEXT('',#25,'mechanical');
#150=PRODUCT_DEFINITION_FORMATION_WITH_SPECIFIED_SOURCE(' ','NONE',#76,.NOT_KNOWN.);
#151=CARTESIAN_POINT('',(0.0,0.0,0.0));
#152=DIRECTION('',(0.0,0.0,1.0));
#153=DIRECTION('',(1.0,0.0,0.0));
#154= (NAMED_UNIT(#84)LENGTH_UNIT()SI_UNIT(.MILLI.,.METRE.));
#155=SURFACE_SIDE_STYLE('',(#357));
#156=DRAUGHTING_PRE_DEFINED_CURVE_FONT('continuous');
#157=COLOUR_RGB('',0.501960813999176,0.501960813999176,0.501960813999176);
#158=EDGE_LOOP('',(#358));
#159=AXIS2_PLACEMENT_3D('',#359,#360,#361);
#160=SURFACE_SIDE_STYLE('',(#362));
#161=DRAUGHTING_PRE_DEFINED_CURVE_FONT('continuous');
#162=COLOUR_RGB('',0.501960813999176,0.501960813999176,0.501960813999176);
#163=EDGE_LOOP('',(#363));
#164=AXIS2_PLACEMENT_3D('',#364,#365,#366);
#165=SURFACE_SIDE_STYLE('',(#367));
#166=DRAUGHTING_PRE_DEFINED_CURVE_FONT('continuous');
#167=COLOUR_RGB('',0.501960813999176,0.501960813999176,0.501960813999176);
#168=EDGE_LOOP('',(#368,#369));
#169=EDGE_LOOP('',(#370));
#170=AXIS2_PLACEMENT_3D('',#371,#372,#373);
#171=DRAUGHTING_PRE_DEFINED_CURVE_FONT('continuous');
#172=COLOUR_RGB('',0.501960813999176,0.501960813999176,0.501960813999176);
#173=CARTESIAN_POINT('',(2.6,11.7,6.5));
#174=AXIS2_PLACEMENT_3D('',#374,#375,#376);
#175=DRAUGHTING_PRE_DEFINED_CURVE_FONT('continuous');
#176=COLOUR_RGB('',0.501960813999176,0.501960813999176,0.501960813999176);
#177=CARTESIAN_POINT('',(-9.79717439317883E-015,12.0,160.0));
#178=AXIS2_PLACEMENT_3D('',#377,#378,#379);
#179=SURFACE_SIDE_STYLE('',(#380));
#180=DRAUGHTING_PRE_DEFINED_CURVE_FONT('continuous');
#181=COLOUR_RGB('',0.501960813999176,0.501960813999176,0.501960813999176);
#182=SURFACE_SIDE_STYLE('',(#381));
#183=DRAUGHTING_PRE_DEFINED_CURVE_FONT('continuous');
#184=COLOUR_RGB('',0.501960813999176,0.501960813999176,0.501960813999176);
#185=EDGE_LOOP('',(#382));
#186=EDGE_LOOP('',(#383));
#187=AXIS2_PLACEMENT_3D('',#384,#385,#386);
#188=DRAUGHTING_PRE_DEFINED_CURVE_FONT('continuous');
#189=COLOUR_RGB('',0.501960813999176,0.501960813999176,0.501960813999176);
#190=CARTESIAN_POINT('',(-1.88823919374096E-030,12.0,2.98912855893808E-014));
#191=AXIS2_PLACEMENT_3D('',#387,#388,#389);
#192=DRAUGHTING_PRE_DEFINED_CURVE_FONT('continuous');
#193=COLOUR_RGB('',0.501960813999176,0.501960813999176,0.501960813999176);
#194=CARTESIAN_POINT('',(7.0,0.0,17.5));
#195=AXIS2_PLACEMENT_3D('',#390,#391,#392);
#196=SURFACE_SIDE_STYLE('',(#393));
#197=DRAUGHTING_PRE_DEFINED_CURVE_FONT('continuous');
#198=COLOUR_RGB('',0.501960813999176,0.501960813999176,0.501960813999176);
#199=EDGE_LOOP('',(#394,#395));
#200=EDGE_LOOP('',(#396));
#201=EDGE_LOOP('',(#397));
#202=AXIS2_PLACEMENT_3D('',#398,#399,#400);
#203=SURFACE_SIDE_STYLE('',(#401));
#204=DRAUGHTING_PRE_DEFINED_CURVE_FONT('continuous');
#205=COLOUR_RGB('',0.501960813999176,0.501960813999176,0.501960813999176);
#206=EDGE_LOOP('',(#402));
#207=EDGE_LOOP('',(#403));
#208=AXIS2_PLACEMENT_3D('',#404,#405,#406);
#209=SURFACE_SIDE_STYLE('',(#407));
#210=DRAUGHTING_PRE_DEFINED_CURVE_FONT('continuous');
#211=COLOUR_RGB('',0.501960813999176,0.501960813999176,0.501960813999176);
#212=EDGE_LOOP('',(#408));
#213=AXIS2_PLACEMENT_3D('',#409,#410,#411);
#214=DRAUGHTING_PRE_DEFINED_CURVE_FONT('continuous');
#215=COLOUR_RGB('',0.501960813999176,0.501960813999176,0.501960813999176);
#216=CARTESIAN_POINT('',(-2.13700866451213E-015,12.0,9.1));
#217=CARTESIAN_POINT('',(-2.77382500006876E-015,12.0,3.9));
#218=CARTESIAN_POINT('',(2.6,11.714947716486,6.5));
#219=CARTESIAN_POINT('',(2.6,11.714947716486,6.66379759336446));
#220=CARTESIAN_POINT('',(2.5842718483291,11.7184760752339,6.83301698475191));
#221=CARTESIAN_POINT('',(2.51821521457459,11.7328485307004,7.16929323314495));
#222=CARTESIAN_POINT('',(2.46790277363863,11.7436813147597,7.33635372441044));
#223=CARTESIAN_POINT('',(2.33507495818762,11.7708121925983,7.65648468037343));
#224=CARTESIAN_POINT('',(2.25245399160521,11.7871051895351,7.80982005523359));
#225=CARTESIAN_POINT('',(2.06172836537446,11.8219572778888,8.09325255679755));
#226=CARTESIAN_POINT('',(1.95361024270728,11.8404806132573,8.22334501946277));
#227=CARTESIAN_POINT('',(1.7233539650326,11.8761788103437,8.45360129713745));
#228=CARTESIAN_POINT('',(1.59326566096718,11.894615867168,8.56171842088604));
#229=CARTESIAN_POINT('',(1.3098305515056,11.9291544553718,8.75244805493825));
#230=CARTESIAN_POINT('',(1.15648841585553,11.9452222879364,8.83507360541592));
#231=CARTESIAN_POINT('',(0.836344253502773,11.9718974791246,8.96790650613339));
#232=CARTESIAN_POINT('',(0.669277516241325,11.9825033991715,9.01821943562407));
#233=CARTESIAN_POINT('',(0.332999572354546,11.9965591479272,9.08427413494275));
#234=CARTESIAN_POINT('',(0.163784866624485,12.0,9.09999999999999));
#235=CARTESIAN_POINT('',(-0.163784866624489,12.0,9.09999999999999));
#236=CARTESIAN_POINT('',(-0.33299957235455,11.9965591479272,9.08427413494275));
#237=CARTESIAN_POINT('',(-0.669277516241329,11.9825033991715,9.01821943562407));
#238=CARTESIAN_POINT('',(-0.836344253502777,11.9718974791246,8.96790650613339));
#239=CARTESIAN_POINT('',(-1.15648841585553,11.9452222879364,8.83507360541592));
#240=CARTESIAN_POINT('',(-1.3098305515056,11.9291544553718,8.75244805493825));
#241=CARTESIAN_POINT('',(-1.59326566096719,11.894615867168,8.56171842088604));
#242=CARTESIAN_POINT('',(-1.72335396503261,11.8761788103437,8.45360129713745));
#243=CARTESIAN_POINT('',(-1.95361024270728,11.8404806132573,8.22334501946277));
#244=CARTESIAN_POINT('',(-2.06172836537447,11.8219572778888,8.09325255679754));
#245=CARTESIAN_POINT('',(-2.25245399160521,11.7871051895351,7.80982005523359));
#246=CARTESIAN_POINT('',(-2.33507495818762,11.7708121925983,7.65648468037343));
#247=CARTESIAN_POINT('',(-2.46790277363864,11.7436813147597,7.33635372441044));
#248=CARTESIAN_POINT('',(-2.51821521457459,11.7328485307004,7.16929323314495));
#249=CARTESIAN_POINT('',(-2.58427184832911,11.7184760752339,6.83301698475191));
#250=CARTESIAN_POINT('',(-2.6,11.714947716486,6.66379759336446));
#251=CARTESIAN_POINT('',(-2.6,11.714947716486,6.33620240663554));
#252=CARTESIAN_POINT('',(-2.58427184832911,11.7184760752339,6.16698301524809));
#253=CARTESIAN_POINT('',(-2.51821521457459,11.7328485307004,5.83070676685505));
#254=CARTESIAN_POINT('',(-2.46790277363864,11.7436813147597,5.66364627558956));
#255=CARTESIAN_POINT('',(-2.33507495818762,11.7708121925983,5.34351531962657));
#256=CARTESIAN_POINT('',(-2.25245399160521,11.7871051895351,5.19017994476641));
#257=CARTESIAN_POINT('',(-2.06172836537447,11.8219572778888,4.90674744320245));
#258=CARTESIAN_POINT('',(-1.95361024270728,11.8404806132573,4.77665498053723));
#259=CARTESIAN_POINT('',(-1.72335396503261,11.8761788103437,4.54639870286255));
#260=CARTESIAN_POINT('',(-1.59326566096719,11.894615867168,4.43828157911397));
#261=CARTESIAN_POINT('',(-1.30983055150561,11.9291544553718,4.24755194506175));
#262=CARTESIAN_POINT('',(-1.15648841585554,11.9452222879364,4.16492639458408));
#263=CARTESIAN_POINT('',(-0.836344253502777,11.9718974791246,4.03209349386661));
#264=CARTESIAN_POINT('',(-0.669277516241329,11.9825033991715,3.98178056437593));
#265=CARTESIAN_POINT('',(-0.33299957235455,11.9965591479273,3.91572586505725));
#266=CARTESIAN_POINT('',(-0.163784866624489,12.0,3.90000000000001));
#267=CARTESIAN_POINT('',(0.163784866624484,12.0,3.90000000000001));
#268=CARTESIAN_POINT('',(0.332999572354544,11.9965591479273,3.91572586505725));
#269=CARTESIAN_POINT('',(0.669277516241324,11.9825033991715,3.98178056437593));
#270=CARTESIAN_POINT('',(0.836344253502771,11.9718974791246,4.03209349386661));
#271=CARTESIAN_POINT('',(1.15648841585553,11.9452222879364,4.16492639458408));
#272=CARTESIAN_POINT('',(1.3098305515056,11.9291544553718,4.24755194506175));
#273=CARTESIAN_POINT('',(1.59326566096719,11.894615867168,4.43828157911397));
#274=CARTESIAN_POINT('',(1.7233539650326,11.8761788103437,4.54639870286255));
#275=CARTESIAN_POINT('',(1.95361024270728,11.8404806132573,4.77665498053723));
#276=CARTESIAN_POINT('',(2.06172836537446,11.8219572778888,4.90674744320245));
#277=CARTESIAN_POINT('',(2.25245399160521,11.7871051895351,5.19017994476641));
#278=CARTESIAN_POINT('',(2.33507495818762,11.7708121925983,5.34351531962657));
#279=CARTESIAN_POINT('',(2.46790277363863,11.7436813147597,5.66364627558956));
#280=CARTESIAN_POINT('',(2.51821521457459,11.7328485307004,5.83070676685505));
#281=CARTESIAN_POINT('',(2.5842718483291,11.7184760752339,6.16698301524809));
#282=CARTESIAN_POINT('',(2.6,11.714947716486,6.33620240663554));
#283=CARTESIAN_POINT('',(2.6,11.714947716486,6.5));
#284=DRAUGHTING_PRE_DEFINED_CURVE_FONT('continuous');
#285=COLOUR_RGB('',0.501960813999176,0.501960813999176,0.501960813999176);
#286=CARTESIAN_POINT('',(7.0,0.0,0.0));
#287=AXIS2_PLACEMENT_3D('',#412,#413,#414);
#288=DRAUGHTING_PRE_DEFINED_CURVE_FONT('continuous');
#289=COLOUR_RGB('',0.501960813999176,0.501960813999176,0.501960813999176);
#290=CARTESIAN_POINT('',(2.6,11.714947716486,6.5));
#291=CARTESIAN_POINT('',(2.6,11.714947716486,6.66379759336446));
#292=CARTESIAN_POINT('',(2.5842718483291,11.7184760752339,6.83301698475191));
#293=CARTESIAN_POINT('',(2.51821521457459,11.7328485307004,7.16929323314495));
#294=CARTESIAN_POINT('',(2.46790277363863,11.7436813147597,7.33635372441044));
#295=CARTESIAN_POINT('',(2.33507495818762,11.7708121925983,7.65648468037343));
#296=CARTESIAN_POINT('',(2.25245399160521,11.7871051895351,7.80982005523359));
#297=CARTESIAN_POINT('',(2.06172836537446,11.8219572778888,8.09325255679755));
#298=CARTESIAN_POINT('',(1.95361024270728,11.8404806132573,8.22334501946277));
#299=CARTESIAN_POINT('',(1.7233539650326,11.8761788103437,8.45360129713745));
#300=CARTESIAN_POINT('',(1.59326566096718,11.894615867168,8.56171842088604));
#301=CARTESIAN_POINT('',(1.3098305515056,11.9291544553718,8.75244805493825));
#302=CARTESIAN_POINT('',(1.15648841585553,11.9452222879364,8.83507360541592));
#303=CARTESIAN_POINT('',(0.836344253502773,11.9718974791246,8.96790650613339));
#304=CARTESIAN_POINT('',(0.669277516241325,11.9825033991715,9.01821943562407));
#305=CARTESIAN_POINT('',(0.332999572354546,11.9965591479272,9.08427413494275));
#306=CARTESIAN_POINT('',(0.163784866624485,12.0,9.09999999999999));
#307=CARTESIAN_POINT('',(-0.163784866624489,12.0,9.09999999999999));
#308=CARTESIAN_POINT('',(-0.33299957235455,11.9965591479272,9.08427413494275));
#309=CARTESIAN_POINT('',(-0.669277516241329,11.9825033991715,9.01821943562407));
#310=CARTESIAN_POINT('',(-0.836344253502777,11.9718974791246,8.96790650613339));
#311=CARTESIAN_POINT('',(-1.15648841585553,11.9452222879364,8.83507360541592));
#312=CARTESIAN_POINT('',(-1.3098305515056,11.9291544553718,8.75244805493825));
#313=CARTESIAN_POINT('',(-1.59326566096719,11.894615867168,8.56171842088604));
#314=CARTESIAN_POINT('',(-1.72335396503261,11.8761788103437,8.45360129713745));
#315=CARTESIAN_POINT('',(-1.95361024270728,11.8404806132573,8.22334501946277));
#316=CARTESIAN_POINT('',(-2.06172836537447,11.8219572778888,8.09325255679754));
#317=CARTESIAN_POINT('',(-2.25245399160521,11.7871051895351,7.80982005523359));
#318=CARTESIAN_POINT('',(-2.33507495818762,11.7708121925983,7.65648468037343));
#319=CARTESIAN_POINT('',(-2.46790277363864,11.7436813147597,7.33635372441044));
#320=CARTESIAN_POINT('',(-2.51821521457459,11.7328485307004,7.16929323314495));
#321=CARTESIAN_POINT('',(-2.58427184832911,11.7184760752339,6.83301698475191));
#322=CARTESIAN_POINT('',(-2.6,11.714947716486,6.66379759336446));
#323=CARTESIAN_POINT('',(-2.6,11.714947716486,6.33620240663554));
#324=CARTESIAN_POINT('',(-2.58427184832911,11.7184760752339,6.16698301524809));
#325=CARTESIAN_POINT('',(-2.51821521457459,11.7328485307004,5.83070676685505));
#326=CARTESIAN_POINT('',(-2.46790277363864,11.7436813147597,5.66364627558956));
#327=CARTESIAN_POINT('',(-2.33507495818762,11.7708121925983,5.34351531962657));
#328=CARTESIAN_POINT('',(-2.25245399160521,11.7871051895351,5.19017994476641));
#329=CARTESIAN_POINT('',(-2.06172836537447,11.8219572778888,4.90674744320245));
#330=CARTESIAN_POINT('',(-1.95361024270728,11.8404806132573,4.77665498053723));
#331=CARTESIAN_POINT('',(-1.72335396503261,11.8761788103437,4.54639870286255));
#332=CARTESIAN_POINT('',(-1.59326566096719,11.894615867168,4.43828157911397));
#333=CARTESIAN_POINT('',(-1.30983055150561,11.9291544553718,4.24755194506175));
#334=CARTESIAN_POINT('',(-1.15648841585554,11.9452222879364,4.16492639458408));
#335=CARTESIAN_POINT('',(-0.836344253502777,11.9718974791246,4.03209349386661));
#336=CARTESIAN_POINT('',(-0.669277516241329,11.9825033991715,3.98178056437593));
#337=CARTESIAN_POINT('',(-0.33299957235455,11.9965591479273,3.91572586505725));
#338=CARTESIAN_POINT('',(-0.163784866624489,12.0,3.90000000000001));
#339=CARTESIAN_POINT('',(0.163784866624484,12.0,3.90000000000001));
#340=CARTESIAN_POINT('',(0.332999572354544,11.9965591479273,3.91572586505725));
#341=CARTESIAN_POINT('',(0.669277516241324,11.9825033991715,3.98178056437593));
#342=CARTESIAN_POINT('',(0.836344253502771,11.9718974791246,4.03209349386661));
#343=CARTESIAN_POINT('',(1.15648841585553,11.9452222879364,4.16492639458408));
#344=CARTESIAN_POINT('',(1.3098305515056,11.9291544553718,4.24755194506175));
#345=CARTESIAN_POINT('',(1.59326566096719,11.894615867168,4.43828157911397));
#346=CARTESIAN_POINT('',(1.7233539650326,11.8761788103437,4.54639870286255));
#347=CARTESIAN_POINT('',(1.95361024270728,11.8404806132573,4.77665498053723));
#348=CARTESIAN_POINT('',(2.06172836537446,11.8219572778888,4.90674744320245));
#349=CARTESIAN_POINT('',(2.25245399160521,11.7871051895351,5.19017994476641));
#350=CARTESIAN_POINT('',(2.33507495818762,11.7708121925983,5.34351531962657));
#351=CARTESIAN_POINT('',(2.46790277363863,11.7436813147597,5.66364627558956));
#352=CARTESIAN_POINT('',(2.51821521457459,11.7328485307004,5.83070676685505));
#353=CARTESIAN_POINT('',(2.5842718483291,11.7184760752339,6.16698301524809));
#354=CARTESIAN_POINT('',(2.6,11.714947716486,6.33620240663554));
#355=CARTESIAN_POINT('',(2.6,11.714947716486,6.5));
#357=SURFACE_STYLE_FILL_AREA(#415);
#358=ORIENTED_EDGE('',*,*,#50,.F.);
#359=CARTESIAN_POINT('',(-9.79717439317883E-015,5.99999999999998,160.0));
#360=DIRECTION('',(-9.18338008663382E-049,-1.22464679914735E-016,1.0));
#361=DIRECTION('',(1.0,-7.49879891330927E-033,0.0));
#362=SURFACE_STYLE_FILL_AREA(#416);
#363=ORIENTED_EDGE('',*,*,#60,.T.);
#364=CARTESIAN_POINT('',(1.24001162272598,6.88929395333836,17.5));
#365=DIRECTION('',(0.0,0.0,1.0));
#366=DIRECTION('',(1.0,0.0,0.0));
#367=SURFACE_STYLE_FILL_AREA(#417);
#368=ORIENTED_EDGE('',*,*,#71,.F.);
#369=ORIENTED_EDGE('',*,*,#75,.F.);
#370=ORIENTED_EDGE('',*,*,#48,.F.);
#371=CARTESIAN_POINT('',(-2.29621274840129E-015,12.0,6.5));
#372=DIRECTION('',(0.0,-1.0,0.0));
#373=DIRECTION('',(1.0,0.0,0.0));
#374=CARTESIAN_POINT('',(-2.29621274840129E-015,11.7,6.5));
#375=DIRECTION('',(-0.0,1.0,0.0));
#376=DIRECTION('',(1.0,0.0,0.0));
#377=CARTESIAN_POINT('',(-9.79717439317883E-015,-1.95943487863576E-014,160.0));
#378=DIRECTION('',(6.12323399573677E-017,1.22464679914735E-016,-1.0));
#379=DIRECTION('',(-1.23259516440783E-032,1.0,1.22464679914735E-016));
#380=SURFACE_STYLE_FILL_AREA(#418);
#381=SURFACE_STYLE_FILL_AREA(#419);
#382=ORIENTED_EDGE('',*,*,#60,.F.);
#383=ORIENTED_EDGE('',*,*,#73,.F.);
#384=CARTESIAN_POINT('',(0.0,0.0,0.0));
#385=DIRECTION('',(0.0,0.0,-1.0));
#386=DIRECTION('',(1.0,0.0,0.0));
#387=CARTESIAN_POINT('',(-1.74032777401202E-030,-3.48065554802404E-030,2.8421709430404E-014));
#388=DIRECTION('',(6.12323399573677E-017,1.22464679914735E-016,-1.0));
#389=DIRECTION('',(-1.23259516440783E-032,1.0,1.22464679914735E-016));
#390=CARTESIAN_POINT('',(0.0,0.0,17.5));
#391=DIRECTION('',(0.0,0.0,-1.0));
#392=DIRECTION('',(1.0,0.0,0.0));
#393=SURFACE_STYLE_FILL_AREA(#420);
#394=ORIENTED_EDGE('',*,*,#71,.T.);
#395=ORIENTED_EDGE('',*,*,#75,.T.);
#396=ORIENTED_EDGE('',*,*,#58,.F.);
#397=ORIENTED_EDGE('',*,*,#50,.T.);
#398=CARTESIAN_POINT('',(-4.89858719658941E-015,-9.79717439317883E-015,80.0));
#399=DIRECTION('',(-6.12323399573677E-017,-1.22464679914735E-016,1.0));
#400=DIRECTION('',(-1.23259516440783E-032,1.0,1.22464679914735E-016));
#401=SURFACE_STYLE_FILL_AREA(#421);
#402=ORIENTED_EDGE('',*,*,#73,.T.);
#403=ORIENTED_EDGE('',*,*,#58,.T.);
#404=CARTESIAN_POINT('',(-9.4411959687048E-031,6.0,1.49456427946904E-014));
#405=DIRECTION('',(6.12323399573677E-017,2.49094046578174E-015,-1.0));
#406=DIRECTION('',(-1.0,0.0,-6.12323399573677E-017));
#407=SURFACE_STYLE_FILL_AREA(#422);
#408=ORIENTED_EDGE('',*,*,#48,.T.);
#409=CARTESIAN_POINT('',(0.460575745583933,11.7,3.94111938876));
#410=DIRECTION('',(-0.0,1.0,0.0));
#411=DIRECTION('',(1.0,0.0,0.0));
#412=CARTESIAN_POINT('',(0.0,0.0,1.49456427946904E-014));
#413=DIRECTION('',(-6.12323399573677E-017,-2.49094046578174E-015,1.0));
#414=DIRECTION('',(1.0,-1.52526113414311E-031,6.12323399573677E-017));
#415=FILL_AREA_STYLE('',(#423));
#416=FILL_AREA_STYLE('',(#424));
#417=FILL_AREA_STYLE('',(#425));
#418=FILL_AREA_STYLE('',(#426));
#419=FILL_AREA_STYLE('',(#427));
#420=FILL_AREA_STYLE('',(#428));
#421=FILL_AREA_STYLE('',(#429));
#422=FILL_AREA_STYLE('',(#430));
#423=FILL_AREA_STYLE_COLOUR('',#431);
#424=FILL_AREA_STYLE_COLOUR('',#432);
#425=FILL_AREA_STYLE_COLOUR('',#433);
#426=FILL_AREA_STYLE_COLOUR('',#434);
#427=FILL_AREA_STYLE_COLOUR('',#435);
#428=FILL_AREA_STYLE_COLOUR('',#436);
#429=FILL_AREA_STYLE_COLOUR('',#437);
#430=FILL_AREA_STYLE_COLOUR('',#438);
#431=COLOUR_RGB('',0.501960813999176,0.501960813999176,0.501960813999176);
#432=COLOUR_RGB('',0.501960813999176,0.501960813999176,0.501960813999176);
#433=COLOUR_RGB('',0.501960813999176,0.501960813999176,0.501960813999176);
#434=COLOUR_RGB('',0.501960813999176,0.501960813999176,0.501960813999176);
#435=COLOUR_RGB('',0.501960813999176,0.501960813999176,0.501960813999176);
#436=COLOUR_RGB('',0.501960813999176,0.501960813999176,0.501960813999176);
#437=COLOUR_RGB('',0.501960813999176,0.501960813999176,0.501960813999176);
#438=COLOUR_RGB('',0.501960813999176,0.501960813999176,0.501960813999176);
ENDSEC;
END-ISO-10303-21;
