ISO-10303-21;
HEADER;
FILE_DESCRIPTION((''),'1');
FILE_NAME('T:/00_BIG-HP\X2\FF71FF6FFF8CFF9F\X0\/2022_\X2\30C030A630F330ED30FC30C930C730FC30BF\X0\/02_STEP\X2\FF83FF9EFF70FF80\X0\/\X2\5207524A5DE55177\X0\/\X2\FF74FF9DFF84FF9EFF90FF9952A05DE5\X0\/01_\X2\FF8CFF99FF76FF6FFF84FF90FF99\X0\FCM/04_\X2\FF7DFF84FF9AFF70FF84FF7CFF6CFF9DFF78578B\X0\/02_\X2\FF75FF70FF8AFF9EFF70FF7BFF72FF7DFF9E\X0\/\X2\5EA76A19\X0\_\X2\5C5E6027590966F4\X0\/ST24-FCM25092-180.stp','2022-11-04T06:04:16',(''),(''),'Spatial Interop R21 SP3','Kubotek KeyCreator 2011 V10.0.2 (22737)',' ');
FILE_SCHEMA(('automotive_design'));
ENDSEC;
DATA;
#1=MECHANICAL_DESIGN_GEOMETRIC_PRESENTATION_REPRESENTATION(' ',(#14,#15,#16,#17,#18,#19,#20,#21,#22,#23,#24,#25,#26,#27,#28,#29,#30,#31,#32,#33,#34,#35,#36,#37),#10);
#2=PRODUCT_DEFINITION_CONTEXT('',#38,'design');
#3=APPLICATION_PROTOCOL_DEFINITION('INTERNATIONAL STANDARD','automotive_design',1994,#38);
#4=PRODUCT_CATEGORY_RELATIONSHIP('NONE','NONE',#39,#40);
#5=SHAPE_DEFINITION_REPRESENTATION(#41,#42);
#6=PRODUCT_DEFINITION_CONTEXT('',#43,'design');
#7=APPLICATION_PROTOCOL_DEFINITION('INTERNATIONAL STANDARD','automotive_design',1994,#43);
#8=PRODUCT_CATEGORY_RELATIONSHIP('NONE','NONE',#44,#45);
#9=SHAPE_DEFINITION_REPRESENTATION(#46,#47);
#10= (GEOMETRIC_REPRESENTATION_CONTEXT(3)GLOBAL_UNCERTAINTY_ASSIGNED_CONTEXT((#50))GLOBAL_UNIT_ASSIGNED_CONTEXT((#52,#53,#54))REPRESENTATION_CONTEXT('NONE','WORKSPACE'));
#14=STYLED_ITEM('',(#56),#57);
#15=STYLED_ITEM('',(#58,#59),#60);
#16=STYLED_ITEM('',(#61),#62);
#17=STYLED_ITEM('',(#63,#64),#65);
#18=STYLED_ITEM('',(#66,#67),#68);
#19=STYLED_ITEM('',(#69,#70),#71);
#20=STYLED_ITEM('',(#72),#73);
#21=STYLED_ITEM('',(#74,#75),#76);
#22=STYLED_ITEM('',(#77,#78),#79);
#23=STYLED_ITEM('',(#80,#81),#82);
#24=STYLED_ITEM('',(#83,#84),#85);
#25=STYLED_ITEM('',(#86),#87);
#26=STYLED_ITEM('',(#88,#89),#90);
#27=STYLED_ITEM('',(#91),#92);
#28=STYLED_ITEM('',(#93),#94);
#29=STYLED_ITEM('',(#95,#96),#97);
#30=STYLED_ITEM('',(#98),#99);
#31=STYLED_ITEM('',(#100,#101),#102);
#32=STYLED_ITEM('',(#103),#104);
#33=STYLED_ITEM('',(#105,#106),#107);
#34=STYLED_ITEM('',(#108,#109),#110);
#35=STYLED_ITEM('',(#111),#112);
#36=STYLED_ITEM('',(#113),#114);
#37=STYLED_ITEM('',(#115,#116),#117);
#38=APPLICATION_CONTEXT(' ');
#39=PRODUCT_CATEGORY('part','NONE');
#40=PRODUCT_RELATED_PRODUCT_CATEGORY('detail',' ',(#118));
#41=PRODUCT_DEFINITION_SHAPE('NONE','NONE',#119);
#42=ADVANCED_BREP_SHAPE_REPRESENTATION('240[2]',(#60,#120),#10);
#43=APPLICATION_CONTEXT(' ');
#44=PRODUCT_CATEGORY('part','NONE');
#45=PRODUCT_RELATED_PRODUCT_CATEGORY('detail',' ',(#121));
#46=PRODUCT_DEFINITION_SHAPE('NONE','NONE',#122);
#47=ADVANCED_BREP_SHAPE_REPRESENTATION('241[3]',(#117,#123),#10);
#50=UNCERTAINTY_MEASURE_WITH_UNIT(LENGTH_MEASURE(1.0E-006),#52,'','');
#52= (CONVERSION_BASED_UNIT('MILLIMETRE',#126)LENGTH_UNIT()NAMED_UNIT(#129));
#53= (NAMED_UNIT(#131)PLANE_ANGLE_UNIT()SI_UNIT($,.RADIAN.));
#54= (NAMED_UNIT(#131)SOLID_ANGLE_UNIT()SI_UNIT($,.STERADIAN.));
#56=PRESENTATION_STYLE_ASSIGNMENT((#137));
#57=EDGE_CURVE('241[3]',#138,#138,#139,.T.);
#58=PRESENTATION_STYLE_ASSIGNMENT((#140));
#59=PRESENTATION_STYLE_ASSIGNMENT((#141));
#60=MANIFOLD_SOLID_BREP('240[2]',#142);
#61=PRESENTATION_STYLE_ASSIGNMENT((#143));
#62=EDGE_CURVE('240[2]',#144,#144,#145,.T.);
#63=PRESENTATION_STYLE_ASSIGNMENT((#146));
#64=PRESENTATION_STYLE_ASSIGNMENT((#147));
#65=ADVANCED_FACE('241[3]',(#148,#149),#150,.F.);
#66=PRESENTATION_STYLE_ASSIGNMENT((#151));
#67=PRESENTATION_STYLE_ASSIGNMENT((#152));
#68=ADVANCED_FACE('240[2]',(#153,#154),#155,.T.);
#69=PRESENTATION_STYLE_ASSIGNMENT((#156));
#70=PRESENTATION_STYLE_ASSIGNMENT((#157));
#71=ADVANCED_FACE('240[2]',(#158),#159,.T.);
#72=PRESENTATION_STYLE_ASSIGNMENT((#160));
#73=EDGE_CURVE('240[2]',#161,#161,#162,.T.);
#74=PRESENTATION_STYLE_ASSIGNMENT((#163));
#75=PRESENTATION_STYLE_ASSIGNMENT((#164));
#76=ADVANCED_FACE('240[2]',(#165,#166),#167,.T.);
#77=PRESENTATION_STYLE_ASSIGNMENT((#168));
#78=PRESENTATION_STYLE_ASSIGNMENT((#169));
#79=ADVANCED_FACE('240[2]',(#170,#171),#172,.T.);
#80=PRESENTATION_STYLE_ASSIGNMENT((#173));
#81=PRESENTATION_STYLE_ASSIGNMENT((#174));
#82=ADVANCED_FACE('240[2]',(#175,#176),#177,.T.);
#83=PRESENTATION_STYLE_ASSIGNMENT((#178));
#84=PRESENTATION_STYLE_ASSIGNMENT((#179));
#85=ADVANCED_FACE('241[3]',(#180,#181),#182,.T.);
#86=PRESENTATION_STYLE_ASSIGNMENT((#183));
#87=EDGE_CURVE('241[3]',#184,#184,#185,.T.);
#88=PRESENTATION_STYLE_ASSIGNMENT((#186));
#89=PRESENTATION_STYLE_ASSIGNMENT((#187));
#90=ADVANCED_FACE('241[3]',(#188),#189,.T.);
#91=PRESENTATION_STYLE_ASSIGNMENT((#190));
#92=EDGE_CURVE('241[3]',#191,#191,#192,.T.);
#93=PRESENTATION_STYLE_ASSIGNMENT((#193));
#94=EDGE_CURVE('241[3]',#194,#194,#195,.T.);
#95=PRESENTATION_STYLE_ASSIGNMENT((#196));
#96=PRESENTATION_STYLE_ASSIGNMENT((#197));
#97=ADVANCED_FACE('240[2]',(#198,#199),#200,.T.);
#98=PRESENTATION_STYLE_ASSIGNMENT((#201));
#99=EDGE_CURVE('240[2]',#202,#202,#203,.T.);
#100=PRESENTATION_STYLE_ASSIGNMENT((#204));
#101=PRESENTATION_STYLE_ASSIGNMENT((#205));
#102=ADVANCED_FACE('240[2]',(#206),#207,.T.);
#103=PRESENTATION_STYLE_ASSIGNMENT((#208));
#104=EDGE_CURVE('240[2]',#209,#209,#210,.T.);
#105=PRESENTATION_STYLE_ASSIGNMENT((#211));
#106=PRESENTATION_STYLE_ASSIGNMENT((#212));
#107=ADVANCED_FACE('241[3]',(#213),#214,.T.);
#108=PRESENTATION_STYLE_ASSIGNMENT((#215));
#109=PRESENTATION_STYLE_ASSIGNMENT((#216));
#110=ADVANCED_FACE('241[3]',(#217,#218),#219,.T.);
#111=PRESENTATION_STYLE_ASSIGNMENT((#220));
#112=EDGE_CURVE('240[2]',#221,#221,#222,.T.);
#113=PRESENTATION_STYLE_ASSIGNMENT((#223));
#114=EDGE_CURVE('240[2]',#224,#224,#225,.T.);
#115=PRESENTATION_STYLE_ASSIGNMENT((#226));
#116=PRESENTATION_STYLE_ASSIGNMENT((#227));
#117=MANIFOLD_SOLID_BREP('241[3]',#228);
#118=PRODUCT('240[2]','240[2]','PART-240[2]-DESC',(#229));
#119=PRODUCT_DEFINITION('NONE','NONE',#230,#2);
#120=AXIS2_PLACEMENT_3D('',#231,#232,#233);
#121=PRODUCT('241[3]','241[3]','PART-241[3]-DESC',(#234));
#122=PRODUCT_DEFINITION('NONE','NONE',#235,#6);
#123=AXIS2_PLACEMENT_3D('',#236,#237,#238);
#126=LENGTH_MEASURE_WITH_UNIT(LENGTH_MEASURE(1.0),#239);
#129=DIMENSIONAL_EXPONENTS(1.0,0.0,0.0,0.0,0.0,0.0,0.0);
#131=DIMENSIONAL_EXPONENTS(0.0,0.0,0.0,0.0,0.0,0.0,0.0);
#137=CURVE_STYLE('',#240,POSITIVE_LENGTH_MEASURE(1000.0),#241);
#138=VERTEX_POINT('',#242);
#139=CIRCLE('',#243,10.7099999999999);
#140=SURFACE_STYLE_USAGE(.BOTH.,#244);
#141=CURVE_STYLE('',#245,POSITIVE_LENGTH_MEASURE(1000.0),#246);
#142=CLOSED_SHELL('',(#71,#68,#76,#79,#82,#97,#102));
#143=CURVE_STYLE('',#247,POSITIVE_LENGTH_MEASURE(1000.0),#248);
#144=VERTEX_POINT('',#249);
#145=CIRCLE('',#250,11.9);
#146=SURFACE_STYLE_USAGE(.BOTH.,#251);
#147=CURVE_STYLE('',#252,POSITIVE_LENGTH_MEASURE(1000.0),#253);
#148=FACE_BOUND('',#254,.T.);
#149=FACE_BOUND('',#255,.T.);
#150=CONICAL_SURFACE('',#256,10.5020075809638,0.872664625996987);
#151=SURFACE_STYLE_USAGE(.BOTH.,#257);
#152=CURVE_STYLE('',#258,POSITIVE_LENGTH_MEASURE(1000.0),#259);
#153=FACE_BOUND('',#260,.T.);
#154=FACE_BOUND('',#261,.T.);
#155=CONICAL_SURFACE('',#262,11.925,0.0263097172252397);
#156=SURFACE_STYLE_USAGE(.BOTH.,#263);
#157=CURVE_STYLE('',#264,POSITIVE_LENGTH_MEASURE(1000.0),#265);
#158=FACE_OUTER_BOUND('',#266,.T.);
#159=PLANE('',#267);
#160=CURVE_STYLE('',#268,POSITIVE_LENGTH_MEASURE(1000.0),#269);
#161=VERTEX_POINT('',#270);
#162=CIRCLE('',#271,12.0);
#163=SURFACE_STYLE_USAGE(.BOTH.,#272);
#164=CURVE_STYLE('',#273,POSITIVE_LENGTH_MEASURE(1000.0),#274);
#165=FACE_BOUND('',#275,.T.);
#166=FACE_BOUND('',#276,.T.);
#167=CONICAL_SURFACE('',#277,11.975,0.266485108137142);
#168=SURFACE_STYLE_USAGE(.BOTH.,#278);
#169=CURVE_STYLE('',#279,POSITIVE_LENGTH_MEASURE(1000.0),#280);
#170=FACE_BOUND('',#281,.T.);
#171=FACE_BOUND('',#282,.T.);
#172=CYLINDRICAL_SURFACE('',#283,11.9);
#173=SURFACE_STYLE_USAGE(.BOTH.,#284);
#174=CURVE_STYLE('',#285,POSITIVE_LENGTH_MEASURE(1000.0),#286);
#175=FACE_BOUND('',#287,.T.);
#176=FACE_BOUND('',#288,.T.);
#177=CONICAL_SURFACE('',#289,11.95,0.523598759189275);
#178=SURFACE_STYLE_USAGE(.BOTH.,#290);
#179=CURVE_STYLE('',#291,POSITIVE_LENGTH_MEASURE(1000.0),#292);
#180=FACE_BOUND('',#293,.T.);
#181=FACE_BOUND('',#294,.T.);
#182=CYLINDRICAL_SURFACE('',#295,12.4999999999999);
#183=CURVE_STYLE('',#296,POSITIVE_LENGTH_MEASURE(1000.0),#297);
#184=VERTEX_POINT('',#298);
#185=CIRCLE('',#299,10.2940151619276);
#186=SURFACE_STYLE_USAGE(.BOTH.,#300);
#187=CURVE_STYLE('',#301,POSITIVE_LENGTH_MEASURE(1000.0),#302);
#188=FACE_OUTER_BOUND('',#303,.T.);
#189=PLANE('',#304);
#190=CURVE_STYLE('',#305,POSITIVE_LENGTH_MEASURE(1000.0),#306);
#191=VERTEX_POINT('',#307);
#192=CIRCLE('',#308,12.4999999999999);
#193=CURVE_STYLE('',#309,POSITIVE_LENGTH_MEASURE(1000.0),#310);
#194=VERTEX_POINT('',#311);
#195=CIRCLE('',#312,12.5);
#196=SURFACE_STYLE_USAGE(.BOTH.,#313);
#197=CURVE_STYLE('',#314,POSITIVE_LENGTH_MEASURE(1000.0),#315);
#198=FACE_BOUND('',#316,.T.);
#199=FACE_BOUND('',#317,.T.);
#200=CYLINDRICAL_SURFACE('',#318,12.0);
#201=CURVE_STYLE('',#319,POSITIVE_LENGTH_MEASURE(1000.0),#320);
#202=VERTEX_POINT('',#321);
#203=CIRCLE('',#322,12.0);
#204=SURFACE_STYLE_USAGE(.BOTH.,#323);
#205=CURVE_STYLE('',#324,POSITIVE_LENGTH_MEASURE(1000.0),#325);
#206=FACE_OUTER_BOUND('',#326,.T.);
#207=PLANE('',#327);
#208=CURVE_STYLE('',#328,POSITIVE_LENGTH_MEASURE(1000.0),#329);
#209=VERTEX_POINT('',#330);
#210=CIRCLE('',#331,12.05);
#211=SURFACE_STYLE_USAGE(.BOTH.,#332);
#212=CURVE_STYLE('',#333,POSITIVE_LENGTH_MEASURE(1000.0),#334);
#213=FACE_OUTER_BOUND('',#335,.T.);
#214=PLANE('',#336);
#215=SURFACE_STYLE_USAGE(.BOTH.,#337);
#216=CURVE_STYLE('',#338,POSITIVE_LENGTH_MEASURE(1000.0),#339);
#217=FACE_OUTER_BOUND('',#340,.T.);
#218=FACE_BOUND('',#341,.T.);
#219=PLANE('',#342);
#220=CURVE_STYLE('',#343,POSITIVE_LENGTH_MEASURE(1000.0),#344);
#221=VERTEX_POINT('',#345);
#222=CIRCLE('',#346,11.8);
#223=CURVE_STYLE('',#347,POSITIVE_LENGTH_MEASURE(1000.0),#348);
#224=VERTEX_POINT('',#349);
#225=CIRCLE('',#350,11.9);
#226=SURFACE_STYLE_USAGE(.BOTH.,#351);
#227=CURVE_STYLE('',#352,POSITIVE_LENGTH_MEASURE(1000.0),#353);
#228=CLOSED_SHELL('',(#90,#65,#110,#85,#107));
#229=PRODUCT_CONTEXT('',#38,'mechanical');
#230=PRODUCT_DEFINITION_FORMATION_WITH_SPECIFIED_SOURCE(' ','NONE',#118,.NOT_KNOWN.);
#231=CARTESIAN_POINT('',(0.0,0.0,0.0));
#232=DIRECTION('',(0.0,0.0,1.0));
#233=DIRECTION('',(1.0,0.0,0.0));
#234=PRODUCT_CONTEXT('',#43,'mechanical');
#235=PRODUCT_DEFINITION_FORMATION_WITH_SPECIFIED_SOURCE(' ','NONE',#121,.NOT_KNOWN.);
#236=CARTESIAN_POINT('',(0.0,0.0,0.0));
#237=DIRECTION('',(0.0,0.0,1.0));
#238=DIRECTION('',(1.0,0.0,0.0));
#239= (NAMED_UNIT(#129)LENGTH_UNIT()SI_UNIT(.MILLI.,.METRE.));
#240=DRAUGHTING_PRE_DEFINED_CURVE_FONT('continuous');
#241=COLOUR_RGB('',0.800000011920929,0.800000011920929,0.800000011920929);
#242=CARTESIAN_POINT('',(1.10218211923262E-014,10.71,-180.0));
#243=AXIS2_PLACEMENT_3D('',#355,#356,#357);
#244=SURFACE_SIDE_STYLE('',(#358));
#245=DRAUGHTING_PRE_DEFINED_CURVE_FONT('continuous');
#246=COLOUR_RGB('',0.501960813999176,0.501960813999176,0.501960813999176);
#247=DRAUGHTING_PRE_DEFINED_CURVE_FONT('continuous');
#248=COLOUR_RGB('',0.501960813999176,0.501960813999176,0.501960813999176);
#249=CARTESIAN_POINT('',(1.03758508987161E-014,-11.9,-169.45050452));
#250=AXIS2_PLACEMENT_3D('',#359,#360,#361);
#251=SURFACE_SIDE_STYLE('',(#362));
#252=DRAUGHTING_PRE_DEFINED_CURVE_FONT('continuous');
#253=COLOUR_RGB('',0.800000011920929,0.800000011920929,0.800000011920929);
#254=EDGE_LOOP('',(#363));
#255=EDGE_LOOP('',(#364));
#256=AXIS2_PLACEMENT_3D('',#365,#366,#367);
#257=SURFACE_SIDE_STYLE('',(#368));
#258=DRAUGHTING_PRE_DEFINED_CURVE_FONT('continuous');
#259=COLOUR_RGB('',0.501960813999176,0.501960813999176,0.501960813999176);
#260=EDGE_LOOP('',(#369));
#261=EDGE_LOOP('',(#370));
#262=AXIS2_PLACEMENT_3D('',#371,#372,#373);
#263=SURFACE_SIDE_STYLE('',(#374));
#264=DRAUGHTING_PRE_DEFINED_CURVE_FONT('continuous');
#265=COLOUR_RGB('',0.501960813999176,0.501960813999176,0.501960813999176);
#266=EDGE_LOOP('',(#375));
#267=AXIS2_PLACEMENT_3D('',#376,#377,#378);
#268=DRAUGHTING_PRE_DEFINED_CURVE_FONT('continuous');
#269=COLOUR_RGB('',0.501960813999176,0.501960813999176,0.501960813999176);
#270=CARTESIAN_POINT('',(1.4791141972894E-031,-12.0,-1.46957615897682E-015));
#271=AXIS2_PLACEMENT_3D('',#379,#380,#381);
#272=SURFACE_SIDE_STYLE('',(#382));
#273=DRAUGHTING_PRE_DEFINED_CURVE_FONT('continuous');
#274=COLOUR_RGB('',0.501960813999176,0.501960813999176,0.501960813999176);
#275=EDGE_LOOP('',(#383));
#276=EDGE_LOOP('',(#384));
#277=AXIS2_PLACEMENT_3D('',#385,#386,#387);
#278=SURFACE_SIDE_STYLE('',(#388));
#279=DRAUGHTING_PRE_DEFINED_CURVE_FONT('continuous');
#280=COLOUR_RGB('',0.501960813999176,0.501960813999176,0.501960813999176);
#281=EDGE_LOOP('',(#389));
#282=EDGE_LOOP('',(#390));
#283=AXIS2_PLACEMENT_3D('',#391,#392,#393);
#284=SURFACE_SIDE_STYLE('',(#394));
#285=DRAUGHTING_PRE_DEFINED_CURVE_FONT('continuous');
#286=COLOUR_RGB('',0.501960813999176,0.501960813999176,0.501960813999176);
#287=EDGE_LOOP('',(#395));
#288=EDGE_LOOP('',(#396));
#289=AXIS2_PLACEMENT_3D('',#397,#398,#399);
#290=SURFACE_SIDE_STYLE('',(#400));
#291=DRAUGHTING_PRE_DEFINED_CURVE_FONT('continuous');
#292=COLOUR_RGB('',0.800000011920929,0.800000011920929,0.800000011920929);
#293=EDGE_LOOP('',(#401));
#294=EDGE_LOOP('',(#402));
#295=AXIS2_PLACEMENT_3D('',#403,#404,#405);
#296=DRAUGHTING_PRE_DEFINED_CURVE_FONT('continuous');
#297=COLOUR_RGB('',0.800000011920929,0.800000011920929,0.800000011920929);
#298=CARTESIAN_POINT('',(1.10004478772548E-014,10.2940151619277,-179.650947275798));
#299=AXIS2_PLACEMENT_3D('',#406,#407,#408);
#300=SURFACE_SIDE_STYLE('',(#409));
#301=DRAUGHTING_PRE_DEFINED_CURVE_FONT('continuous');
#302=COLOUR_RGB('',0.800000011920929,0.800000011920929,0.800000011920929);
#303=EDGE_LOOP('',(#410));
#304=AXIS2_PLACEMENT_3D('',#411,#412,#413);
#305=DRAUGHTING_PRE_DEFINED_CURVE_FONT('continuous');
#306=COLOUR_RGB('',0.800000011920929,0.800000011920929,0.800000011920929);
#307=CARTESIAN_POINT('',(1.10218211923262E-014,12.4999999999999,-180.0));
#308=AXIS2_PLACEMENT_3D('',#414,#415,#416);
#309=DRAUGHTING_PRE_DEFINED_CURVE_FONT('continuous');
#310=COLOUR_RGB('',0.800000011920929,0.800000011920929,0.800000011920929);
#311=CARTESIAN_POINT('',(1.03613111696323E-014,12.5,-169.213052724202));
#312=AXIS2_PLACEMENT_3D('',#417,#418,#419);
#313=SURFACE_SIDE_STYLE('',(#420));
#314=DRAUGHTING_PRE_DEFINED_CURVE_FONT('continuous');
#315=COLOUR_RGB('',0.501960813999176,0.501960813999176,0.501960813999176);
#316=EDGE_LOOP('',(#421));
#317=EDGE_LOOP('',(#422));
#318=AXIS2_PLACEMENT_3D('',#423,#424,#425);
#319=DRAUGHTING_PRE_DEFINED_CURVE_FONT('continuous');
#320=COLOUR_RGB('',0.501960813999176,0.501960813999176,0.501960813999176);
#321=CARTESIAN_POINT('',(8.87868929275774E-015,-12.0,-144.99999998268));
#322=AXIS2_PLACEMENT_3D('',#426,#427,#428);
#323=SURFACE_SIDE_STYLE('',(#429));
#324=DRAUGHTING_PRE_DEFINED_CURVE_FONT('continuous');
#325=COLOUR_RGB('',0.501960813999176,0.501960813999176,0.501960813999176);
#326=EDGE_LOOP('',(#430));
#327=AXIS2_PLACEMENT_3D('',#431,#432,#433);
#328=DRAUGHTING_PRE_DEFINED_CURVE_FONT('continuous');
#329=COLOUR_RGB('',0.501960813999176,0.501960813999176,0.501960813999176);
#330=CARTESIAN_POINT('',(1.04094977921402E-014,-12.05,-169.99999999));
#331=AXIS2_PLACEMENT_3D('',#434,#435,#436);
#332=SURFACE_SIDE_STYLE('',(#437));
#333=DRAUGHTING_PRE_DEFINED_CURVE_FONT('continuous');
#334=COLOUR_RGB('',0.800000011920929,0.800000011920929,0.800000011920929);
#335=EDGE_LOOP('',(#438));
#336=AXIS2_PLACEMENT_3D('',#439,#440,#441);
#337=SURFACE_SIDE_STYLE('',(#442));
#338=DRAUGHTING_PRE_DEFINED_CURVE_FONT('continuous');
#339=COLOUR_RGB('',0.800000011920929,0.800000011920929,0.800000011920929);
#340=EDGE_LOOP('',(#443));
#341=EDGE_LOOP('',(#444));
#342=AXIS2_PLACEMENT_3D('',#445,#446,#447);
#343=DRAUGHTING_PRE_DEFINED_CURVE_FONT('continuous');
#344=COLOUR_RGB('',0.501960813999176,0.501960813999176,0.501960813999176);
#345=CARTESIAN_POINT('',(1.09912050223475E-014,-11.8,-179.5));
#346=AXIS2_PLACEMENT_3D('',#448,#449,#450);
#347=DRAUGHTING_PRE_DEFINED_CURVE_FONT('continuous');
#348=COLOUR_RGB('',0.501960813999176,0.501960813999176,0.501960813999176);
#349=CARTESIAN_POINT('',(8.8892950455469E-015,-11.9,-145.17320507));
#350=AXIS2_PLACEMENT_3D('',#451,#452,#453);
#351=SURFACE_SIDE_STYLE('',(#454));
#352=DRAUGHTING_PRE_DEFINED_CURVE_FONT('continuous');
#353=COLOUR_RGB('',0.800000011920929,0.800000011920929,0.800000011920929);
#355=CARTESIAN_POINT('',(1.10218211923262E-014,2.20436423846524E-014,-180.0));
#356=DIRECTION('',(-6.12323399573677E-017,-1.22464679914735E-016,1.0));
#357=DIRECTION('',(-1.23259516440783E-032,1.0,1.22464679914735E-016));
#358=SURFACE_STYLE_FILL_AREA(#455);
#359=CARTESIAN_POINT('',(1.03758508987161E-014,2.07517017974322E-014,-169.45050452));
#360=DIRECTION('',(-6.12323399573677E-017,-1.22464679914735E-016,1.0));
#361=DIRECTION('',(1.23259516440783E-032,-1.0,-1.22464679914735E-016));
#362=SURFACE_STYLE_FILL_AREA(#456);
#363=ORIENTED_EDGE('',*,*,#57,.F.);
#364=ORIENTED_EDGE('',*,*,#87,.T.);
#365=CARTESIAN_POINT('',(1.10111345347905E-014,2.2022269069581E-014,-179.825473637899));
#366=DIRECTION('',(6.12323399573677E-017,1.22464679914735E-016,-1.0));
#367=DIRECTION('',(-1.23259516440783E-032,1.0,1.22464679914735E-016));
#368=SURFACE_STYLE_FILL_AREA(#457);
#369=ORIENTED_EDGE('',*,*,#104,.F.);
#370=ORIENTED_EDGE('',*,*,#112,.T.);
#371=CARTESIAN_POINT('',(1.07003514072438E-014,2.14007028144877E-014,-174.749999995));
#372=DIRECTION('',(-6.12323399573677E-017,-1.22464679914735E-016,1.0));
#373=DIRECTION('',(1.23259516440783E-032,-1.0,-1.22464679914735E-016));
#374=SURFACE_STYLE_FILL_AREA(#458);
#375=ORIENTED_EDGE('',*,*,#112,.F.);
#376=CARTESIAN_POINT('',(1.09912050223475E-014,-5.89999999999997,-179.5));
#377=DIRECTION('',(6.12323399573677E-017,-9.51201309310358E-015,-1.0));
#378=DIRECTION('',(5.77615666665082E-031,1.0,-9.51201309310358E-015));
#379=CARTESIAN_POINT('',(0.0,0.0,0.0));
#380=DIRECTION('',(-6.12323399573677E-017,-1.22464679914735E-016,1.0));
#381=DIRECTION('',(1.23259516440783E-032,-1.0,-1.22464679914735E-016));
#382=SURFACE_STYLE_FILL_AREA(#459);
#383=ORIENTED_EDGE('',*,*,#62,.F.);
#384=ORIENTED_EDGE('',*,*,#104,.T.);
#385=CARTESIAN_POINT('',(1.03926743454281E-014,2.07853486908563E-014,-169.725252255));
#386=DIRECTION('',(6.12323399573677E-017,1.22464679914735E-016,-1.0));
#387=DIRECTION('',(1.23259516440783E-032,-1.0,-1.22464679914735E-016));
#388=SURFACE_STYLE_FILL_AREA(#460);
#389=ORIENTED_EDGE('',*,*,#114,.F.);
#390=ORIENTED_EDGE('',*,*,#62,.T.);
#391=CARTESIAN_POINT('',(9.6325729721315E-015,1.9265145944263E-014,-157.311854795));
#392=DIRECTION('',(-6.12323399573677E-017,-1.22464679914735E-016,1.0));
#393=DIRECTION('',(1.23259516440783E-032,-1.0,-1.22464679914735E-016));
#394=SURFACE_STYLE_FILL_AREA(#461);
#395=ORIENTED_EDGE('',*,*,#99,.F.);
#396=ORIENTED_EDGE('',*,*,#114,.T.);
#397=CARTESIAN_POINT('',(8.88399216915232E-015,1.77679843383046E-014,-145.08660252634));
#398=DIRECTION('',(-6.12323399573677E-017,-1.22464679914735E-016,1.0));
#399=DIRECTION('',(1.23259516440783E-032,-1.0,-1.22464679914735E-016));
#400=SURFACE_STYLE_FILL_AREA(#462);
#401=ORIENTED_EDGE('',*,*,#94,.F.);
#402=ORIENTED_EDGE('',*,*,#92,.T.);
#403=CARTESIAN_POINT('',(1.06915661809793E-014,2.13831323619585E-014,-174.606526362101));
#404=DIRECTION('',(-6.12323399573677E-017,-1.22464679914735E-016,1.0));
#405=DIRECTION('',(-1.23259516440783E-032,1.0,1.22464679914735E-016));
#406=CARTESIAN_POINT('',(1.10004478772548E-014,2.20008957545096E-014,-179.650947275798));
#407=DIRECTION('',(-6.12323399573677E-017,-1.22464679914735E-016,1.0));
#408=DIRECTION('',(-1.23259516440783E-032,1.0,1.22464679914735E-016));
#409=SURFACE_STYLE_FILL_AREA(#463);
#410=ORIENTED_EDGE('',*,*,#87,.F.);
#411=CARTESIAN_POINT('',(1.10004478772548E-014,5.14700758096384,-179.650947275798));
#412=DIRECTION('',(6.12323399573677E-017,1.22464679914735E-016,-1.0));
#413=DIRECTION('',(1.23259516440783E-032,-1.0,-1.22464679914735E-016));
#414=CARTESIAN_POINT('',(1.10218211923262E-014,2.20436423846524E-014,-180.0));
#415=DIRECTION('',(-6.12323399573677E-017,-1.22464679914735E-016,1.0));
#416=DIRECTION('',(-1.23259516440783E-032,1.0,1.22464679914735E-016));
#417=CARTESIAN_POINT('',(1.03613111696323E-014,2.07226223392646E-014,-169.213052724202));
#418=DIRECTION('',(-6.12323399573677E-017,-1.22464679914735E-016,1.0));
#419=DIRECTION('',(-1.23259516440783E-032,1.0,1.22464679914735E-016));
#420=SURFACE_STYLE_FILL_AREA(#464);
#421=ORIENTED_EDGE('',*,*,#73,.F.);
#422=ORIENTED_EDGE('',*,*,#99,.T.);
#423=CARTESIAN_POINT('',(4.43934464637887E-015,8.87868929275774E-015,-72.4999999913398));
#424=DIRECTION('',(-6.12323399573677E-017,-1.22464679914735E-016,1.0));
#425=DIRECTION('',(1.23259516440783E-032,-1.0,-1.22464679914735E-016));
#426=CARTESIAN_POINT('',(8.87868929275774E-015,1.77573785855155E-014,-144.99999998268));
#427=DIRECTION('',(-6.12323399573677E-017,-1.22464679914735E-016,1.0));
#428=DIRECTION('',(1.23259516440783E-032,-1.0,-1.22464679914735E-016));
#429=SURFACE_STYLE_FILL_AREA(#465);
#430=ORIENTED_EDGE('',*,*,#73,.T.);
#431=CARTESIAN_POINT('',(7.39557098644699E-032,-6.0,-7.34788079488412E-016));
#432=DIRECTION('',(-6.12323399573677E-017,-1.22464679914735E-016,1.0));
#433=DIRECTION('',(1.23259516440783E-032,-1.0,-1.22464679914735E-016));
#434=CARTESIAN_POINT('',(1.04094977921402E-014,2.08189955842804E-014,-169.99999999));
#435=DIRECTION('',(-6.12323399573677E-017,-1.22464679914735E-016,1.0));
#436=DIRECTION('',(1.23259516440783E-032,-1.0,-1.22464679914735E-016));
#437=SURFACE_STYLE_FILL_AREA(#466);
#438=ORIENTED_EDGE('',*,*,#94,.T.);
#439=CARTESIAN_POINT('',(1.03613111696323E-014,6.25,-169.213052724202));
#440=DIRECTION('',(-6.12323399573677E-017,-1.22464679914735E-016,1.0));
#441=DIRECTION('',(-1.23259516440783E-032,1.0,1.22464679914735E-016));
#442=SURFACE_STYLE_FILL_AREA(#467);
#443=ORIENTED_EDGE('',*,*,#92,.F.);
#444=ORIENTED_EDGE('',*,*,#57,.T.);
#445=CARTESIAN_POINT('',(1.10218211923262E-014,11.6049999999999,-180.0));
#446=DIRECTION('',(6.12323399573677E-017,1.22464679914735E-016,-1.0));
#447=DIRECTION('',(1.23259516440783E-032,-1.0,-1.22464679914735E-016));
#448=CARTESIAN_POINT('',(1.09912050223475E-014,2.1982410044695E-014,-179.5));
#449=DIRECTION('',(-6.12323399573677E-017,-1.22464679914735E-016,1.0));
#450=DIRECTION('',(1.23259516440783E-032,-1.0,-1.22464679914735E-016));
#451=CARTESIAN_POINT('',(8.8892950455469E-015,1.77785900910938E-014,-145.17320507));
#452=DIRECTION('',(-6.12323399573677E-017,-1.22464679914735E-016,1.0));
#453=DIRECTION('',(1.23259516440783E-032,-1.0,-1.22464679914735E-016));
#454=SURFACE_STYLE_FILL_AREA(#468);
#455=FILL_AREA_STYLE('',(#469));
#456=FILL_AREA_STYLE('',(#470));
#457=FILL_AREA_STYLE('',(#471));
#458=FILL_AREA_STYLE('',(#472));
#459=FILL_AREA_STYLE('',(#473));
#460=FILL_AREA_STYLE('',(#474));
#461=FILL_AREA_STYLE('',(#475));
#462=FILL_AREA_STYLE('',(#476));
#463=FILL_AREA_STYLE('',(#477));
#464=FILL_AREA_STYLE('',(#478));
#465=FILL_AREA_STYLE('',(#479));
#466=FILL_AREA_STYLE('',(#480));
#467=FILL_AREA_STYLE('',(#481));
#468=FILL_AREA_STYLE('',(#482));
#469=FILL_AREA_STYLE_COLOUR('',#483);
#470=FILL_AREA_STYLE_COLOUR('',#484);
#471=FILL_AREA_STYLE_COLOUR('',#485);
#472=FILL_AREA_STYLE_COLOUR('',#486);
#473=FILL_AREA_STYLE_COLOUR('',#487);
#474=FILL_AREA_STYLE_COLOUR('',#488);
#475=FILL_AREA_STYLE_COLOUR('',#489);
#476=FILL_AREA_STYLE_COLOUR('',#490);
#477=FILL_AREA_STYLE_COLOUR('',#491);
#478=FILL_AREA_STYLE_COLOUR('',#492);
#479=FILL_AREA_STYLE_COLOUR('',#493);
#480=FILL_AREA_STYLE_COLOUR('',#494);
#481=FILL_AREA_STYLE_COLOUR('',#495);
#482=FILL_AREA_STYLE_COLOUR('',#496);
#483=COLOUR_RGB('',0.501960813999176,0.501960813999176,0.501960813999176);
#484=COLOUR_RGB('',0.800000011920929,0.800000011920929,0.800000011920929);
#485=COLOUR_RGB('',0.501960813999176,0.501960813999176,0.501960813999176);
#486=COLOUR_RGB('',0.501960813999176,0.501960813999176,0.501960813999176);
#487=COLOUR_RGB('',0.501960813999176,0.501960813999176,0.501960813999176);
#488=COLOUR_RGB('',0.501960813999176,0.501960813999176,0.501960813999176);
#489=COLOUR_RGB('',0.501960813999176,0.501960813999176,0.501960813999176);
#490=COLOUR_RGB('',0.800000011920929,0.800000011920929,0.800000011920929);
#491=COLOUR_RGB('',0.800000011920929,0.800000011920929,0.800000011920929);
#492=COLOUR_RGB('',0.501960813999176,0.501960813999176,0.501960813999176);
#493=COLOUR_RGB('',0.501960813999176,0.501960813999176,0.501960813999176);
#494=COLOUR_RGB('',0.800000011920929,0.800000011920929,0.800000011920929);
#495=COLOUR_RGB('',0.800000011920929,0.800000011920929,0.800000011920929);
#496=COLOUR_RGB('',0.800000011920929,0.800000011920929,0.800000011920929);
ENDSEC;
END-ISO-10303-21;
