ISO-10303-21;
HEADER;
FILE_DESCRIPTION((''),'1');
FILE_NAME('T:/00_BIG-HP\X2\FF71FF6FFF8CFF9F\X0\/2022_\X2\30C030A630F330ED30FC30C930C730FC30BF\X0\/02_STEP\X2\FF83FF9EFF70FF80\X0\/ST/31_\X2\FF92FF76FF9EFF7CFF9DFF78FF9BFF80FF6FFF8BFF9FFF9DFF78FF9EFF8EFF99FF80FF9E\X0\/01_\X2\672C4F53\X0\/\X2\5C5E6027590966F4\X0\/ST20-MGT3-90.stp','2022-10-19T05:37:33',(''),(''),'Spatial Interop R21 SP3','Kubotek KeyCreator 2011 V10.0.2 (22737)',' ');
FILE_SCHEMA(('automotive_design'));
ENDSEC;
DATA;
#1=MECHANICAL_DESIGN_GEOMETRIC_PRESENTATION_REPRESENTATION(' ',(#10,#11,#12,#13,#14,#15,#16,#17,#18,#19,#20,#21,#22,#23,#24,#25,#26,#27,#28,#29,#30,#31,#32,#33),#6);
#2=PRODUCT_DEFINITION_CONTEXT('',#34,'design');
#3=APPLICATION_PROTOCOL_DEFINITION('INTERNATIONAL STANDARD','automotive_design',1994,#34);
#4=PRODUCT_CATEGORY_RELATIONSHIP('NONE','NONE',#35,#36);
#5=SHAPE_DEFINITION_REPRESENTATION(#37,#38);
#6= (GEOMETRIC_REPRESENTATION_CONTEXT(3)GLOBAL_UNCERTAINTY_ASSIGNED_CONTEXT((#41))GLOBAL_UNIT_ASSIGNED_CONTEXT((#43,#44,#45))REPRESENTATION_CONTEXT('NONE','WORKSPACE'));
#10=STYLED_ITEM('',(#47),#48);
#11=STYLED_ITEM('',(#49,#50),#51);
#12=STYLED_ITEM('',(#52,#53),#54);
#13=STYLED_ITEM('',(#55),#56);
#14=STYLED_ITEM('',(#57),#58);
#15=STYLED_ITEM('',(#59,#60),#61);
#16=STYLED_ITEM('',(#62,#63),#64);
#17=STYLED_ITEM('',(#65,#66),#67);
#18=STYLED_ITEM('',(#68,#69),#70);
#19=STYLED_ITEM('',(#71),#72);
#20=STYLED_ITEM('',(#73),#74);
#21=STYLED_ITEM('',(#75),#76);
#22=STYLED_ITEM('',(#77,#78),#79);
#23=STYLED_ITEM('',(#80,#81),#82);
#24=STYLED_ITEM('',(#83),#84);
#25=STYLED_ITEM('',(#85,#86),#87);
#26=STYLED_ITEM('',(#88),#89);
#27=STYLED_ITEM('',(#90,#91),#92);
#28=STYLED_ITEM('',(#93,#94),#95);
#29=STYLED_ITEM('',(#96,#97),#98);
#30=STYLED_ITEM('',(#99),#100);
#31=STYLED_ITEM('',(#101),#102);
#32=STYLED_ITEM('',(#103,#104),#105);
#33=STYLED_ITEM('',(#106),#107);
#34=APPLICATION_CONTEXT(' ');
#35=PRODUCT_CATEGORY('part','NONE');
#36=PRODUCT_RELATED_PRODUCT_CATEGORY('detail',' ',(#108));
#37=PRODUCT_DEFINITION_SHAPE('NONE','NONE',#109);
#38=ADVANCED_BREP_SHAPE_REPRESENTATION('240[2]',(#64,#110),#6);
#41=UNCERTAINTY_MEASURE_WITH_UNIT(LENGTH_MEASURE(1.0E-006),#43,'','');
#43= (CONVERSION_BASED_UNIT('MILLIMETRE',#113)LENGTH_UNIT()NAMED_UNIT(#116));
#44= (NAMED_UNIT(#118)PLANE_ANGLE_UNIT()SI_UNIT($,.RADIAN.));
#45= (NAMED_UNIT(#118)SOLID_ANGLE_UNIT()SI_UNIT($,.STERADIAN.));
#47=PRESENTATION_STYLE_ASSIGNMENT((#124));
#48=EDGE_CURVE('240[2]',#125,#125,#126,.T.);
#49=PRESENTATION_STYLE_ASSIGNMENT((#127));
#50=PRESENTATION_STYLE_ASSIGNMENT((#128));
#51=ADVANCED_FACE('240[2]',(#129,#130),#131,.T.);
#52=PRESENTATION_STYLE_ASSIGNMENT((#132));
#53=PRESENTATION_STYLE_ASSIGNMENT((#133));
#54=ADVANCED_FACE('240[2]',(#134,#135),#136,.T.);
#55=PRESENTATION_STYLE_ASSIGNMENT((#137));
#56=EDGE_CURVE('240[2]',#138,#138,#139,.T.);
#57=PRESENTATION_STYLE_ASSIGNMENT((#140));
#58=EDGE_CURVE('240[2]',#141,#141,#142,.T.);
#59=PRESENTATION_STYLE_ASSIGNMENT((#143));
#60=PRESENTATION_STYLE_ASSIGNMENT((#144));
#61=ADVANCED_FACE('240[2]',(#145),#146,.T.);
#62=PRESENTATION_STYLE_ASSIGNMENT((#147));
#63=PRESENTATION_STYLE_ASSIGNMENT((#148));
#64=MANIFOLD_SOLID_BREP('240[2]',#149);
#65=PRESENTATION_STYLE_ASSIGNMENT((#150));
#66=PRESENTATION_STYLE_ASSIGNMENT((#151));
#67=ADVANCED_FACE('240[2]',(#152,#153),#154,.T.);
#68=PRESENTATION_STYLE_ASSIGNMENT((#155));
#69=PRESENTATION_STYLE_ASSIGNMENT((#156));
#70=ADVANCED_FACE('240[2]',(#157,#158),#159,.T.);
#71=PRESENTATION_STYLE_ASSIGNMENT((#160));
#72=EDGE_CURVE('240[2]',#161,#161,#162,.T.);
#73=PRESENTATION_STYLE_ASSIGNMENT((#163));
#74=EDGE_CURVE('240[2]',#164,#164,#165,.T.);
#75=PRESENTATION_STYLE_ASSIGNMENT((#166));
#76=EDGE_CURVE('240[2]',#167,#167,#168,.T.);
#77=PRESENTATION_STYLE_ASSIGNMENT((#169));
#78=PRESENTATION_STYLE_ASSIGNMENT((#170));
#79=ADVANCED_FACE('240[2]',(#171,#172),#173,.T.);
#80=PRESENTATION_STYLE_ASSIGNMENT((#174));
#81=PRESENTATION_STYLE_ASSIGNMENT((#175));
#82=ADVANCED_FACE('240[2]',(#176,#177),#178,.T.);
#83=PRESENTATION_STYLE_ASSIGNMENT((#179));
#84=EDGE_CURVE('240[2]',#180,#180,#181,.T.);
#85=PRESENTATION_STYLE_ASSIGNMENT((#182));
#86=PRESENTATION_STYLE_ASSIGNMENT((#183));
#87=ADVANCED_FACE('240[2]',(#184,#185),#186,.T.);
#88=PRESENTATION_STYLE_ASSIGNMENT((#187));
#89=EDGE_CURVE('240[2]',#188,#188,#189,.T.);
#90=PRESENTATION_STYLE_ASSIGNMENT((#190));
#91=PRESENTATION_STYLE_ASSIGNMENT((#191));
#92=ADVANCED_FACE('240[2]',(#192,#193),#194,.T.);
#93=PRESENTATION_STYLE_ASSIGNMENT((#195));
#94=PRESENTATION_STYLE_ASSIGNMENT((#196));
#95=ADVANCED_FACE('240[2]',(#197,#198),#199,.T.);
#96=PRESENTATION_STYLE_ASSIGNMENT((#200));
#97=PRESENTATION_STYLE_ASSIGNMENT((#201));
#98=ADVANCED_FACE('240[2]',(#202,#203),#204,.T.);
#99=PRESENTATION_STYLE_ASSIGNMENT((#205));
#100=EDGE_CURVE('240[2]',#206,#206,#207,.T.);
#101=PRESENTATION_STYLE_ASSIGNMENT((#208));
#102=EDGE_CURVE('240[2]',#209,#209,#210,.T.);
#103=PRESENTATION_STYLE_ASSIGNMENT((#211));
#104=PRESENTATION_STYLE_ASSIGNMENT((#212));
#105=ADVANCED_FACE('240[2]',(#213),#214,.T.);
#106=PRESENTATION_STYLE_ASSIGNMENT((#215));
#107=EDGE_CURVE('240[2]',#216,#216,#217,.T.);
#108=PRODUCT('240[2]','240[2]','PART-240[2]-DESC',(#218));
#109=PRODUCT_DEFINITION('NONE','NONE',#219,#2);
#110=AXIS2_PLACEMENT_3D('',#220,#221,#222);
#113=LENGTH_MEASURE_WITH_UNIT(LENGTH_MEASURE(1.0),#223);
#116=DIMENSIONAL_EXPONENTS(1.0,0.0,0.0,0.0,0.0,0.0,0.0);
#118=DIMENSIONAL_EXPONENTS(0.0,0.0,0.0,0.0,0.0,0.0,0.0);
#124=CURVE_STYLE('',#224,POSITIVE_LENGTH_MEASURE(1000.0),#225);
#125=VERTEX_POINT('',#226);
#126=CIRCLE('',#227,5.99999999999989);
#127=SURFACE_STYLE_USAGE(.BOTH.,#228);
#128=CURVE_STYLE('',#229,POSITIVE_LENGTH_MEASURE(1000.0),#230);
#129=FACE_BOUND('',#231,.T.);
#130=FACE_BOUND('',#232,.T.);
#131=CYLINDRICAL_SURFACE('',#233,6.10000000000002);
#132=SURFACE_STYLE_USAGE(.BOTH.,#234);
#133=CURVE_STYLE('',#235,POSITIVE_LENGTH_MEASURE(1000.0),#236);
#134=FACE_OUTER_BOUND('',#237,.T.);
#135=FACE_BOUND('',#238,.T.);
#136=PLANE('',#239);
#137=CURVE_STYLE('',#240,POSITIVE_LENGTH_MEASURE(1000.0),#241);
#138=VERTEX_POINT('',#242);
#139=CIRCLE('',#243,6.10000000000002);
#140=CURVE_STYLE('',#244,POSITIVE_LENGTH_MEASURE(1000.0),#245);
#141=VERTEX_POINT('',#246);
#142=CIRCLE('',#247,10.0000000000007);
#143=SURFACE_STYLE_USAGE(.BOTH.,#248);
#144=CURVE_STYLE('',#249,POSITIVE_LENGTH_MEASURE(1000.0),#250);
#145=FACE_OUTER_BOUND('',#251,.T.);
#146=PLANE('',#252);
#147=SURFACE_STYLE_USAGE(.BOTH.,#253);
#148=CURVE_STYLE('',#254,POSITIVE_LENGTH_MEASURE(1000.0),#255);
#149=CLOSED_SHELL('',(#92,#82,#79,#95,#70,#54,#51,#87,#67,#61,#105,#98));
#150=SURFACE_STYLE_USAGE(.BOTH.,#256);
#151=CURVE_STYLE('',#257,POSITIVE_LENGTH_MEASURE(1000.0),#258);
#152=FACE_BOUND('',#259,.T.);
#153=FACE_BOUND('',#260,.T.);
#154=CYLINDRICAL_SURFACE('',#261,5.99999999999989);
#155=SURFACE_STYLE_USAGE(.BOTH.,#262);
#156=CURVE_STYLE('',#263,POSITIVE_LENGTH_MEASURE(1000.0),#264);
#157=FACE_BOUND('',#265,.T.);
#158=FACE_BOUND('',#266,.T.);
#159=CYLINDRICAL_SURFACE('',#267,5.24999999999989);
#160=CURVE_STYLE('',#268,POSITIVE_LENGTH_MEASURE(1000.0),#269);
#161=VERTEX_POINT('',#270);
#162=CIRCLE('',#271,5.24999999999989);
#163=CURVE_STYLE('',#272,POSITIVE_LENGTH_MEASURE(1000.0),#273);
#164=VERTEX_POINT('',#274);
#165=CIRCLE('',#275,6.74999999999997);
#166=CURVE_STYLE('',#276,POSITIVE_LENGTH_MEASURE(1000.0),#277);
#167=VERTEX_POINT('',#278);
#168=CIRCLE('',#279,5.24999999999989);
#169=SURFACE_STYLE_USAGE(.BOTH.,#280);
#170=CURVE_STYLE('',#281,POSITIVE_LENGTH_MEASURE(1000.0),#282);
#171=FACE_BOUND('',#283,.T.);
#172=FACE_BOUND('',#284,.T.);
#173=CYLINDRICAL_SURFACE('',#285,6.74999999999997);
#174=SURFACE_STYLE_USAGE(.BOTH.,#286);
#175=CURVE_STYLE('',#287,POSITIVE_LENGTH_MEASURE(1000.0),#288);
#176=FACE_BOUND('',#289,.T.);
#177=FACE_BOUND('',#290,.T.);
#178=CONICAL_SURFACE('',#291,6.9000000000001,0.785398163397516);
#179=CURVE_STYLE('',#292,POSITIVE_LENGTH_MEASURE(1000.0),#293);
#180=VERTEX_POINT('',#294);
#181=CIRCLE('',#295,5.99999999999989);
#182=SURFACE_STYLE_USAGE(.BOTH.,#296);
#183=CURVE_STYLE('',#297,POSITIVE_LENGTH_MEASURE(1000.0),#298);
#184=FACE_BOUND('',#299,.T.);
#185=FACE_BOUND('',#300,.T.);
#186=CONICAL_SURFACE('',#301,6.04999999999995,0.0831412318881532);
#187=CURVE_STYLE('',#302,POSITIVE_LENGTH_MEASURE(1000.0),#303);
#188=VERTEX_POINT('',#304);
#189=CIRCLE('',#305,6.10000000000002);
#190=SURFACE_STYLE_USAGE(.BOTH.,#306);
#191=CURVE_STYLE('',#307,POSITIVE_LENGTH_MEASURE(1000.0),#308);
#192=FACE_OUTER_BOUND('',#309,.T.);
#193=FACE_BOUND('',#310,.T.);
#194=PLANE('',#311);
#195=SURFACE_STYLE_USAGE(.BOTH.,#312);
#196=CURVE_STYLE('',#313,POSITIVE_LENGTH_MEASURE(1000.0),#314);
#197=FACE_BOUND('',#315,.T.);
#198=FACE_BOUND('',#316,.T.);
#199=CONICAL_SURFACE('',#317,5.99999999999993,1.04719755119653);
#200=SURFACE_STYLE_USAGE(.BOTH.,#318);
#201=CURVE_STYLE('',#319,POSITIVE_LENGTH_MEASURE(1000.0),#320);
#202=FACE_BOUND('',#321,.T.);
#203=FACE_BOUND('',#322,.T.);
#204=CYLINDRICAL_SURFACE('',#323,10.0000000000001);
#205=CURVE_STYLE('',#324,POSITIVE_LENGTH_MEASURE(1000.0),#325);
#206=VERTEX_POINT('',#326);
#207=CIRCLE('',#327,7.05000000000022);
#208=CURVE_STYLE('',#328,POSITIVE_LENGTH_MEASURE(1000.0),#329);
#209=VERTEX_POINT('',#330);
#210=CIRCLE('',#331,6.74999999999997);
#211=SURFACE_STYLE_USAGE(.BOTH.,#332);
#212=CURVE_STYLE('',#333,POSITIVE_LENGTH_MEASURE(1000.0),#334);
#213=FACE_OUTER_BOUND('',#335,.T.);
#214=PLANE('',#336);
#215=CURVE_STYLE('',#337,POSITIVE_LENGTH_MEASURE(1000.0),#338);
#216=VERTEX_POINT('',#339);
#217=CIRCLE('',#340,9.99999999999962);
#218=PRODUCT_CONTEXT('',#34,'mechanical');
#219=PRODUCT_DEFINITION_FORMATION_WITH_SPECIFIED_SOURCE(' ','NONE',#108,.NOT_KNOWN.);
#220=CARTESIAN_POINT('',(0.0,0.0,0.0));
#221=DIRECTION('',(0.0,0.0,1.0));
#222=DIRECTION('',(1.0,0.0,0.0));
#223= (NAMED_UNIT(#116)LENGTH_UNIT()SI_UNIT(.MILLI.,.METRE.));
#224=DRAUGHTING_PRE_DEFINED_CURVE_FONT('continuous');
#225=COLOUR_RGB('',0.501960813999176,0.501960813999176,0.501960813999176);
#226=CARTESIAN_POINT('',(-6.91925441517873E-016,5.99999999999989,11.2999999999938));
#227=AXIS2_PLACEMENT_3D('',#342,#343,#344);
#228=SURFACE_SIDE_STYLE('',(#345));
#229=DRAUGHTING_PRE_DEFINED_CURVE_FONT('continuous');
#230=COLOUR_RGB('',0.501960813999176,0.501960813999176,0.501960813999176);
#231=EDGE_LOOP('',(#346));
#232=EDGE_LOOP('',(#347));
#233=AXIS2_PLACEMENT_3D('',#348,#349,#350);
#234=SURFACE_SIDE_STYLE('',(#351));
#235=DRAUGHTING_PRE_DEFINED_CURVE_FONT('continuous');
#236=COLOUR_RGB('',0.501960813999176,0.501960813999176,0.501960813999176);
#237=EDGE_LOOP('',(#352));
#238=EDGE_LOOP('',(#353));
#239=AXIS2_PLACEMENT_3D('',#354,#355,#356);
#240=DRAUGHTING_PRE_DEFINED_CURVE_FONT('continuous');
#241=COLOUR_RGB('',0.501960813999176,0.501960813999176,0.501960813999176);
#242=CARTESIAN_POINT('',(-8.87868929381823E-016,6.10000000000002,14.4999999999999));
#243=AXIS2_PLACEMENT_3D('',#357,#358,#359);
#244=DRAUGHTING_PRE_DEFINED_CURVE_FONT('continuous');
#245=COLOUR_RGB('',0.501960813999176,0.501960813999176,0.501960813999176);
#246=CARTESIAN_POINT('',(-5.51091059616327E-015,10.0000000000007,90.0000000000029));
#247=AXIS2_PLACEMENT_3D('',#360,#361,#362);
#248=SURFACE_SIDE_STYLE('',(#363));
#249=DRAUGHTING_PRE_DEFINED_CURVE_FONT('continuous');
#250=COLOUR_RGB('',0.501960813999176,0.501960813999176,0.501960813999176);
#251=EDGE_LOOP('',(#364));
#252=AXIS2_PLACEMENT_3D('',#365,#366,#367);
#253=SURFACE_SIDE_STYLE('',(#368));
#254=DRAUGHTING_PRE_DEFINED_CURVE_FONT('continuous');
#255=COLOUR_RGB('',0.501960813999176,0.501960813999176,0.501960813999176);
#256=SURFACE_SIDE_STYLE('',(#369));
#257=DRAUGHTING_PRE_DEFINED_CURVE_FONT('continuous');
#258=COLOUR_RGB('',0.501960813999176,0.501960813999176,0.501960813999176);
#259=EDGE_LOOP('',(#370));
#260=EDGE_LOOP('',(#371));
#261=AXIS2_PLACEMENT_3D('',#372,#373,#374);
#262=SURFACE_SIDE_STYLE('',(#375));
#263=DRAUGHTING_PRE_DEFINED_CURVE_FONT('continuous');
#264=COLOUR_RGB('',0.501960813999176,0.501960813999176,0.501960813999176);
#265=EDGE_LOOP('',(#376));
#266=EDGE_LOOP('',(#377));
#267=AXIS2_PLACEMENT_3D('',#378,#379,#380);
#268=DRAUGHTING_PRE_DEFINED_CURVE_FONT('continuous');
#269=COLOUR_RGB('',0.501960813999176,0.501960813999176,0.501960813999176);
#270=CARTESIAN_POINT('',(-8.87868929381823E-016,5.24999999999988,14.4999999999999));
#271=AXIS2_PLACEMENT_3D('',#381,#382,#383);
#272=DRAUGHTING_PRE_DEFINED_CURVE_FONT('continuous');
#273=COLOUR_RGB('',0.501960813999176,0.501960813999176,0.501960813999176);
#274=CARTESIAN_POINT('',(-9.83760329288216E-016,6.74999999999997,16.0660254037842));
#275=AXIS2_PLACEMENT_3D('',#384,#385,#386);
#276=DRAUGHTING_PRE_DEFINED_CURVE_FONT('continuous');
#277=COLOUR_RGB('',0.501960813999176,0.501960813999176,0.501960813999176);
#278=CARTESIAN_POINT('',(-9.30731567351959E-016,5.24999999999988,15.1999999999995));
#279=AXIS2_PLACEMENT_3D('',#387,#388,#389);
#280=SURFACE_SIDE_STYLE('',(#390));
#281=DRAUGHTING_PRE_DEFINED_CURVE_FONT('continuous');
#282=COLOUR_RGB('',0.501960813999176,0.501960813999176,0.501960813999176);
#283=EDGE_LOOP('',(#391));
#284=EDGE_LOOP('',(#392));
#285=AXIS2_PLACEMENT_3D('',#393,#394,#395);
#286=SURFACE_SIDE_STYLE('',(#396));
#287=DRAUGHTING_PRE_DEFINED_CURVE_FONT('continuous');
#288=COLOUR_RGB('',0.501960813999176,0.501960813999176,0.501960813999176);
#289=EDGE_LOOP('',(#397));
#290=EDGE_LOOP('',(#398));
#291=AXIS2_PLACEMENT_3D('',#399,#400,#401);
#292=DRAUGHTING_PRE_DEFINED_CURVE_FONT('continuous');
#293=COLOUR_RGB('',0.501960813999176,0.501960813999176,0.501960813999176);
#294=CARTESIAN_POINT('',(0.0,5.99999999999989,0.0));
#295=AXIS2_PLACEMENT_3D('',#402,#403,#404);
#296=SURFACE_SIDE_STYLE('',(#405));
#297=DRAUGHTING_PRE_DEFINED_CURVE_FONT('continuous');
#298=COLOUR_RGB('',0.501960813999176,0.501960813999176,0.501960813999176);
#299=EDGE_LOOP('',(#406));
#300=EDGE_LOOP('',(#407));
#301=AXIS2_PLACEMENT_3D('',#408,#409,#410);
#302=DRAUGHTING_PRE_DEFINED_CURVE_FONT('continuous');
#303=COLOUR_RGB('',0.501960813999176,0.501960813999176,0.501960813999176);
#304=CARTESIAN_POINT('',(-7.6540424946707E-016,6.10000000000002,12.4999999999996));
#305=AXIS2_PLACEMENT_3D('',#411,#412,#413);
#306=SURFACE_SIDE_STYLE('',(#414));
#307=DRAUGHTING_PRE_DEFINED_CURVE_FONT('continuous');
#308=COLOUR_RGB('',0.501960813999176,0.501960813999176,0.501960813999176);
#309=EDGE_LOOP('',(#415));
#310=EDGE_LOOP('',(#416));
#311=AXIS2_PLACEMENT_3D('',#417,#418,#419);
#312=SURFACE_SIDE_STYLE('',(#420));
#313=DRAUGHTING_PRE_DEFINED_CURVE_FONT('continuous');
#314=COLOUR_RGB('',0.501960813999176,0.501960813999176,0.501960813999176);
#315=EDGE_LOOP('',(#421));
#316=EDGE_LOOP('',(#422));
#317=AXIS2_PLACEMENT_3D('',#423,#424,#425);
#318=SURFACE_SIDE_STYLE('',(#426));
#319=DRAUGHTING_PRE_DEFINED_CURVE_FONT('continuous');
#320=COLOUR_RGB('',0.501960813999176,0.501960813999176,0.501960813999176);
#321=EDGE_LOOP('',(#427));
#322=EDGE_LOOP('',(#428));
#323=AXIS2_PLACEMENT_3D('',#429,#430,#431);
#324=DRAUGHTING_PRE_DEFINED_CURVE_FONT('continuous');
#325=COLOUR_RGB('',0.501960813999176,0.501960813999176,0.501960813999176);
#326=CARTESIAN_POINT('',(-1.34711147906198E-015,7.05000000000022,21.9999999999983));
#327=AXIS2_PLACEMENT_3D('',#432,#433,#434);
#328=DRAUGHTING_PRE_DEFINED_CURVE_FONT('continuous');
#329=COLOUR_RGB('',0.501960813999176,0.501960813999176,0.501960813999176);
#330=CARTESIAN_POINT('',(-1.32874177707476E-015,6.74999999999997,21.6999999999981));
#331=AXIS2_PLACEMENT_3D('',#435,#436,#437);
#332=SURFACE_SIDE_STYLE('',(#438));
#333=DRAUGHTING_PRE_DEFINED_CURVE_FONT('continuous');
#334=COLOUR_RGB('',0.501960813999176,0.501960813999176,0.501960813999176);
#335=EDGE_LOOP('',(#439));
#336=AXIS2_PLACEMENT_3D('',#440,#441,#442);
#337=DRAUGHTING_PRE_DEFINED_CURVE_FONT('continuous');
#338=COLOUR_RGB('',0.501960813999176,0.501960813999176,0.501960813999176);
#339=CARTESIAN_POINT('',(-1.34711147906211E-015,9.99999999999962,22.0000000000003));
#340=AXIS2_PLACEMENT_3D('',#443,#444,#445);
#342=CARTESIAN_POINT('',(-6.91925441517873E-016,-1.38385088303575E-015,11.2999999999938));
#343=DIRECTION('',(6.12323399573677E-017,1.22464679914735E-016,-1.0));
#344=DIRECTION('',(-1.23259516440783E-032,1.0,1.22464679914735E-016));
#345=SURFACE_STYLE_FILL_AREA(#446);
#346=ORIENTED_EDGE('',*,*,#89,.F.);
#347=ORIENTED_EDGE('',*,*,#56,.T.);
#348=CARTESIAN_POINT('',(-8.26636589424446E-016,-1.65327317884889E-015,13.4999999999997));
#349=DIRECTION('',(-6.12323399573677E-017,-1.22464679914735E-016,1.0));
#350=DIRECTION('',(-1.23259516440783E-032,1.0,1.22464679914735E-016));
#351=SURFACE_STYLE_FILL_AREA(#447);
#352=ORIENTED_EDGE('',*,*,#56,.F.);
#353=ORIENTED_EDGE('',*,*,#72,.T.);
#354=CARTESIAN_POINT('',(-8.87868929381823E-016,5.67499999999995,14.4999999999999));
#355=DIRECTION('',(7.49879891330927E-033,-1.22464679914735E-016,1.0));
#356=DIRECTION('',(1.0,6.12323399573677E-017,0.0));
#357=CARTESIAN_POINT('',(-8.87868929381823E-016,-1.77573785876365E-015,14.4999999999999));
#358=DIRECTION('',(6.12323399573677E-017,1.22464679914735E-016,-1.0));
#359=DIRECTION('',(-1.23259516440783E-032,1.0,1.22464679914735E-016));
#360=CARTESIAN_POINT('',(-5.51091059616327E-015,-1.10218211923265E-014,90.0000000000029));
#361=DIRECTION('',(6.12323399573677E-017,1.22464679914735E-016,-1.0));
#362=DIRECTION('',(-1.23259516440783E-032,1.0,1.22464679914735E-016));
#363=SURFACE_STYLE_FILL_AREA(#448);
#364=ORIENTED_EDGE('',*,*,#84,.T.);
#365=CARTESIAN_POINT('',(0.0,2.99999999999994,0.0));
#366=DIRECTION('',(6.12323399573677E-017,1.22464679914735E-016,-1.0));
#367=DIRECTION('',(-1.0,0.0,-6.12323399573677E-017));
#368=SURFACE_STYLE_FILL_AREA(#449);
#369=SURFACE_STYLE_FILL_AREA(#450);
#370=ORIENTED_EDGE('',*,*,#84,.F.);
#371=ORIENTED_EDGE('',*,*,#48,.T.);
#372=CARTESIAN_POINT('',(-3.45962720758937E-016,-6.91925441517874E-016,5.64999999999689));
#373=DIRECTION('',(-6.12323399573677E-017,-1.22464679914735E-016,1.0));
#374=DIRECTION('',(-1.23259516440783E-032,1.0,1.22464679914735E-016));
#375=SURFACE_STYLE_FILL_AREA(#451);
#376=ORIENTED_EDGE('',*,*,#72,.F.);
#377=ORIENTED_EDGE('',*,*,#76,.T.);
#378=CARTESIAN_POINT('',(-9.09300248366891E-016,-1.81860049673378E-015,14.8499999999997));
#379=DIRECTION('',(-6.12323399573677E-017,-1.22464679914735E-016,1.0));
#380=DIRECTION('',(-1.23259516440783E-032,1.0,1.22464679914735E-016));
#381=CARTESIAN_POINT('',(-8.87868929381823E-016,-1.77573785876365E-015,14.4999999999999));
#382=DIRECTION('',(6.12323399573677E-017,1.22464679914735E-016,-1.0));
#383=DIRECTION('',(-1.23259516440783E-032,1.0,1.22464679914735E-016));
#384=CARTESIAN_POINT('',(-9.83760329288216E-016,-1.96752065857643E-015,16.0660254037842));
#385=DIRECTION('',(6.12323399573677E-017,1.22464679914735E-016,-1.0));
#386=DIRECTION('',(-1.23259516440783E-032,1.0,1.22464679914735E-016));
#387=CARTESIAN_POINT('',(-9.30731567351959E-016,-1.86146313470392E-015,15.1999999999995));
#388=DIRECTION('',(6.12323399573677E-017,1.22464679914735E-016,-1.0));
#389=DIRECTION('',(-1.23259516440783E-032,1.0,1.22464679914735E-016));
#390=SURFACE_STYLE_FILL_AREA(#452);
#391=ORIENTED_EDGE('',*,*,#74,.F.);
#392=ORIENTED_EDGE('',*,*,#102,.T.);
#393=CARTESIAN_POINT('',(-1.15625105318149E-015,-2.31250210636298E-015,18.8830127018911));
#394=DIRECTION('',(-6.12323399573677E-017,-1.22464679914735E-016,1.0));
#395=DIRECTION('',(-1.23259516440783E-032,1.0,1.22464679914735E-016));
#396=SURFACE_STYLE_FILL_AREA(#453);
#397=ORIENTED_EDGE('',*,*,#102,.F.);
#398=ORIENTED_EDGE('',*,*,#100,.T.);
#399=CARTESIAN_POINT('',(-1.33792662806837E-015,-2.67585325613675E-015,21.8499999999982));
#400=DIRECTION('',(-6.12323399573677E-017,-1.22464679914735E-016,1.0));
#401=DIRECTION('',(-1.23259516440783E-032,1.0,1.22464679914735E-016));
#402=CARTESIAN_POINT('',(0.0,0.0,0.0));
#403=DIRECTION('',(6.12323399573677E-017,1.22464679914735E-016,-1.0));
#404=DIRECTION('',(-1.23259516440783E-032,1.0,1.22464679914735E-016));
#405=SURFACE_STYLE_FILL_AREA(#454);
#406=ORIENTED_EDGE('',*,*,#48,.F.);
#407=ORIENTED_EDGE('',*,*,#89,.T.);
#408=CARTESIAN_POINT('',(-7.28664845492472E-016,-1.45732969098494E-015,11.8999999999967));
#409=DIRECTION('',(-6.12323399573677E-017,-1.22464679914735E-016,1.0));
#410=DIRECTION('',(-1.23259516440783E-032,1.0,1.22464679914735E-016));
#411=CARTESIAN_POINT('',(-7.6540424946707E-016,-1.53080849893414E-015,12.4999999999996));
#412=DIRECTION('',(6.12323399573677E-017,1.22464679914735E-016,-1.0));
#413=DIRECTION('',(-1.23259516440783E-032,1.0,1.22464679914735E-016));
#414=SURFACE_STYLE_FILL_AREA(#455);
#415=ORIENTED_EDGE('',*,*,#107,.T.);
#416=ORIENTED_EDGE('',*,*,#100,.F.);
#417=CARTESIAN_POINT('',(-1.34711147906205E-015,8.52499999999992,21.9999999999993));
#418=DIRECTION('',(6.12323399573677E-017,6.88987625450864E-013,-1.0));
#419=DIRECTION('',(-1.0,0.0,-6.12323399573677E-017));
#420=SURFACE_STYLE_FILL_AREA(#456);
#421=ORIENTED_EDGE('',*,*,#76,.F.);
#422=ORIENTED_EDGE('',*,*,#74,.T.);
#423=CARTESIAN_POINT('',(-9.57245948320088E-016,-1.91449189664018E-015,15.6330127018918));
#424=DIRECTION('',(-6.12323399573677E-017,-1.22464679914735E-016,1.0));
#425=DIRECTION('',(-1.23259516440783E-032,1.0,1.22464679914735E-016));
#426=SURFACE_STYLE_FILL_AREA(#457);
#427=ORIENTED_EDGE('',*,*,#107,.F.);
#428=ORIENTED_EDGE('',*,*,#58,.T.);
#429=CARTESIAN_POINT('',(-3.42901103761269E-015,-6.85802207522537E-015,56.0000000000016));
#430=DIRECTION('',(-6.12323399573677E-017,-1.22464679914735E-016,1.0));
#431=DIRECTION('',(-1.23259516440783E-032,1.0,1.22464679914735E-016));
#432=CARTESIAN_POINT('',(-1.34711147906198E-015,-2.69422295812397E-015,21.9999999999983));
#433=DIRECTION('',(6.12323399573677E-017,1.22464679914735E-016,-1.0));
#434=DIRECTION('',(-1.23259516440783E-032,1.0,1.22464679914735E-016));
#435=CARTESIAN_POINT('',(-1.32874177707476E-015,-2.65748355414952E-015,21.6999999999981));
#436=DIRECTION('',(6.12323399573677E-017,1.22464679914735E-016,-1.0));
#437=DIRECTION('',(-1.23259516440783E-032,1.0,1.22464679914735E-016));
#438=SURFACE_STYLE_FILL_AREA(#458);
#439=ORIENTED_EDGE('',*,*,#58,.F.);
#440=CARTESIAN_POINT('',(-5.51091059616327E-015,5.00000000000032,90.0000000000029));
#441=DIRECTION('',(7.49879891330927E-033,-1.22464679914735E-016,1.0));
#442=DIRECTION('',(1.0,6.12323399573677E-017,0.0));
#443=CARTESIAN_POINT('',(-1.34711147906211E-015,-2.69422295812422E-015,22.0000000000003));
#444=DIRECTION('',(6.12323399573677E-017,1.22464679914735E-016,-1.0));
#445=DIRECTION('',(-1.23259516440783E-032,1.0,1.22464679914735E-016));
#446=FILL_AREA_STYLE('',(#459));
#447=FILL_AREA_STYLE('',(#460));
#448=FILL_AREA_STYLE('',(#461));
#449=FILL_AREA_STYLE('',(#462));
#450=FILL_AREA_STYLE('',(#463));
#451=FILL_AREA_STYLE('',(#464));
#452=FILL_AREA_STYLE('',(#465));
#453=FILL_AREA_STYLE('',(#466));
#454=FILL_AREA_STYLE('',(#467));
#455=FILL_AREA_STYLE('',(#468));
#456=FILL_AREA_STYLE('',(#469));
#457=FILL_AREA_STYLE('',(#470));
#458=FILL_AREA_STYLE('',(#471));
#459=FILL_AREA_STYLE_COLOUR('',#472);
#460=FILL_AREA_STYLE_COLOUR('',#473);
#461=FILL_AREA_STYLE_COLOUR('',#474);
#462=FILL_AREA_STYLE_COLOUR('',#475);
#463=FILL_AREA_STYLE_COLOUR('',#476);
#464=FILL_AREA_STYLE_COLOUR('',#477);
#465=FILL_AREA_STYLE_COLOUR('',#478);
#466=FILL_AREA_STYLE_COLOUR('',#479);
#467=FILL_AREA_STYLE_COLOUR('',#480);
#468=FILL_AREA_STYLE_COLOUR('',#481);
#469=FILL_AREA_STYLE_COLOUR('',#482);
#470=FILL_AREA_STYLE_COLOUR('',#483);
#471=FILL_AREA_STYLE_COLOUR('',#484);
#472=COLOUR_RGB('',0.501960813999176,0.501960813999176,0.501960813999176);
#473=COLOUR_RGB('',0.501960813999176,0.501960813999176,0.501960813999176);
#474=COLOUR_RGB('',0.501960813999176,0.501960813999176,0.501960813999176);
#475=COLOUR_RGB('',0.501960813999176,0.501960813999176,0.501960813999176);
#476=COLOUR_RGB('',0.501960813999176,0.501960813999176,0.501960813999176);
#477=COLOUR_RGB('',0.501960813999176,0.501960813999176,0.501960813999176);
#478=COLOUR_RGB('',0.501960813999176,0.501960813999176,0.501960813999176);
#479=COLOUR_RGB('',0.501960813999176,0.501960813999176,0.501960813999176);
#480=COLOUR_RGB('',0.501960813999176,0.501960813999176,0.501960813999176);
#481=COLOUR_RGB('',0.501960813999176,0.501960813999176,0.501960813999176);
#482=COLOUR_RGB('',0.501960813999176,0.501960813999176,0.501960813999176);
#483=COLOUR_RGB('',0.501960813999176,0.501960813999176,0.501960813999176);
#484=COLOUR_RGB('',0.501960813999176,0.501960813999176,0.501960813999176);
ENDSEC;
END-ISO-10303-21;
