ISO-10303-21;
HEADER;
FILE_DESCRIPTION((''),'1');
FILE_NAME('U:/Translate/02_3D_Field-HP\X2\FF71FF6FFF8CFF9F5916\X0\2013/02_Step_Field-HP\X2\FF71FF6FFF8CFF9F5916\X0\2013/71_\X2\5207524A5DE55177\X0\/ST20-CBY09022.stp','2016-05-31T04:53:06',(''),(''),'Spatial Interop R21 SP3','Kubotek KeyCreator 2011 V10.0.2 (22737)',' ');
FILE_SCHEMA(('automotive_design'));
ENDSEC;
DATA;
#1=MECHANICAL_DESIGN_GEOMETRIC_PRESENTATION_REPRESENTATION(' ',(#10,#11,#12,#13,#14,#15,#16,#17,#18,#19),#6);
#2=PRODUCT_DEFINITION_CONTEXT('',#20,'design');
#3=APPLICATION_PROTOCOL_DEFINITION('INTERNATIONAL STANDARD','automotive_design',1994,#20);
#4=PRODUCT_CATEGORY_RELATIONSHIP('NONE','NONE',#21,#22);
#5=SHAPE_DEFINITION_REPRESENTATION(#23,#24);
#6= (GEOMETRIC_REPRESENTATION_CONTEXT(3)GLOBAL_UNCERTAINTY_ASSIGNED_CONTEXT((#27))GLOBAL_UNIT_ASSIGNED_CONTEXT((#29,#30,#31))REPRESENTATION_CONTEXT('NONE','WORKSPACE'));
#10=STYLED_ITEM('',(#33,#34),#35);
#11=STYLED_ITEM('',(#36,#37),#38);
#12=STYLED_ITEM('',(#39,#40),#41);
#13=STYLED_ITEM('',(#42),#43);
#14=STYLED_ITEM('',(#44),#45);
#15=STYLED_ITEM('',(#46,#47),#48);
#16=STYLED_ITEM('',(#49,#50),#51);
#17=STYLED_ITEM('',(#52),#53);
#18=STYLED_ITEM('',(#54),#55);
#19=STYLED_ITEM('',(#56,#57),#58);
#20=APPLICATION_CONTEXT(' ');
#21=PRODUCT_CATEGORY('part','NONE');
#22=PRODUCT_RELATED_PRODUCT_CATEGORY('detail',' ',(#59));
#23=PRODUCT_DEFINITION_SHAPE('NONE','NONE',#60);
#24=ADVANCED_BREP_SHAPE_REPRESENTATION('Unnamed[1]',(#51,#61),#6);
#27=UNCERTAINTY_MEASURE_WITH_UNIT(LENGTH_MEASURE(1.0E-006),#29,'','');
#29= (CONVERSION_BASED_UNIT('MILLIMETRE',#64)LENGTH_UNIT()NAMED_UNIT(#67));
#30= (NAMED_UNIT(#69)PLANE_ANGLE_UNIT()SI_UNIT($,.RADIAN.));
#31= (NAMED_UNIT(#69)SOLID_ANGLE_UNIT()SI_UNIT($,.STERADIAN.));
#33=PRESENTATION_STYLE_ASSIGNMENT((#75));
#34=PRESENTATION_STYLE_ASSIGNMENT((#76));
#35=ADVANCED_FACE('Unnamed[1]',(#77,#78),#79,.T.);
#36=PRESENTATION_STYLE_ASSIGNMENT((#80));
#37=PRESENTATION_STYLE_ASSIGNMENT((#81));
#38=ADVANCED_FACE('Unnamed[1]',(#82),#83,.T.);
#39=PRESENTATION_STYLE_ASSIGNMENT((#84));
#40=PRESENTATION_STYLE_ASSIGNMENT((#85));
#41=ADVANCED_FACE('Unnamed[1]',(#86,#87),#88,.T.);
#42=PRESENTATION_STYLE_ASSIGNMENT((#89));
#43=EDGE_CURVE('Unnamed[1]',#90,#90,#91,.T.);
#44=PRESENTATION_STYLE_ASSIGNMENT((#92));
#45=EDGE_CURVE('Unnamed[1]',#93,#93,#94,.T.);
#46=PRESENTATION_STYLE_ASSIGNMENT((#95));
#47=PRESENTATION_STYLE_ASSIGNMENT((#96));
#48=ADVANCED_FACE('Unnamed[1]',(#97,#98),#99,.T.);
#49=PRESENTATION_STYLE_ASSIGNMENT((#100));
#50=PRESENTATION_STYLE_ASSIGNMENT((#101));
#51=MANIFOLD_SOLID_BREP('Unnamed[1]',#102);
#52=PRESENTATION_STYLE_ASSIGNMENT((#103));
#53=EDGE_CURVE('Unnamed[1]',#104,#104,#105,.T.);
#54=PRESENTATION_STYLE_ASSIGNMENT((#106));
#55=EDGE_CURVE('Unnamed[1]',#107,#107,#108,.T.);
#56=PRESENTATION_STYLE_ASSIGNMENT((#109));
#57=PRESENTATION_STYLE_ASSIGNMENT((#110));
#58=ADVANCED_FACE('Unnamed[1]',(#111,#112),#113,.T.);
#59=PRODUCT('Unnamed[1]','Unnamed[1]','PART-Unnamed[1]-DESC',(#114));
#60=PRODUCT_DEFINITION('NONE','NONE',#115,#2);
#61=AXIS2_PLACEMENT_3D('',#116,#117,#118);
#64=LENGTH_MEASURE_WITH_UNIT(LENGTH_MEASURE(1.0),#119);
#67=DIMENSIONAL_EXPONENTS(1.0,0.0,0.0,0.0,0.0,0.0,0.0);
#69=DIMENSIONAL_EXPONENTS(0.0,0.0,0.0,0.0,0.0,0.0,0.0);
#75=SURFACE_STYLE_USAGE(.BOTH.,#120);
#76=CURVE_STYLE('',#121,POSITIVE_LENGTH_MEASURE(1000.0),#122);
#77=FACE_BOUND('',#123,.T.);
#78=FACE_BOUND('',#124,.T.);
#79=CONICAL_SURFACE('',#125,5.5,0.785398163397425);
#80=SURFACE_STYLE_USAGE(.BOTH.,#126);
#81=CURVE_STYLE('',#127,POSITIVE_LENGTH_MEASURE(1000.0),#128);
#82=FACE_OUTER_BOUND('',#129,.T.);
#83=PLANE('',#130);
#84=SURFACE_STYLE_USAGE(.BOTH.,#131);
#85=CURVE_STYLE('',#132,POSITIVE_LENGTH_MEASURE(1000.0),#133);
#86=FACE_OUTER_BOUND('',#134,.T.);
#87=FACE_BOUND('',#135,.T.);
#88=PLANE('',#136);
#89=CURVE_STYLE('',#137,POSITIVE_LENGTH_MEASURE(1000.0),#138);
#90=VERTEX_POINT('',#139);
#91=CIRCLE('',#140,10.0);
#92=CURVE_STYLE('',#141,POSITIVE_LENGTH_MEASURE(1000.0),#142);
#93=VERTEX_POINT('',#143);
#94=CIRCLE('',#144,11.0);
#95=SURFACE_STYLE_USAGE(.BOTH.,#145);
#96=CURVE_STYLE('',#146,POSITIVE_LENGTH_MEASURE(1000.0),#147);
#97=FACE_BOUND('',#148,.T.);
#98=FACE_BOUND('',#149,.T.);
#99=CYLINDRICAL_SURFACE('',#150,11.0);
#100=SURFACE_STYLE_USAGE(.BOTH.,#151);
#101=CURVE_STYLE('',#152,POSITIVE_LENGTH_MEASURE(1000.0),#153);
#102=CLOSED_SHELL('',(#38,#58,#41,#48,#35));
#103=CURVE_STYLE('',#154,POSITIVE_LENGTH_MEASURE(1000.0),#155);
#104=VERTEX_POINT('',#156);
#105=CIRCLE('',#157,10.0);
#106=CURVE_STYLE('',#158,POSITIVE_LENGTH_MEASURE(1000.0),#159);
#107=VERTEX_POINT('',#160);
#108=CIRCLE('',#161,11.0);
#109=SURFACE_STYLE_USAGE(.BOTH.,#162);
#110=CURVE_STYLE('',#163,POSITIVE_LENGTH_MEASURE(1000.0),#164);
#111=FACE_BOUND('',#165,.T.);
#112=FACE_BOUND('',#166,.T.);
#113=CYLINDRICAL_SURFACE('',#167,10.0);
#114=PRODUCT_CONTEXT('',#20,'mechanical');
#115=PRODUCT_DEFINITION_FORMATION_WITH_SPECIFIED_SOURCE(' ','NONE',#59,.NOT_KNOWN.);
#116=CARTESIAN_POINT('',(0.0,0.0,0.0));
#117=DIRECTION('',(0.0,0.0,1.0));
#118=DIRECTION('',(1.0,0.0,0.0));
#119= (NAMED_UNIT(#67)LENGTH_UNIT()SI_UNIT(.MILLI.,.METRE.));
#120=SURFACE_SIDE_STYLE('',(#169));
#121=DRAUGHTING_PRE_DEFINED_CURVE_FONT('continuous');
#122=COLOUR_RGB('',0.0,1.0,0.0);
#123=VERTEX_LOOP('',#170);
#124=EDGE_LOOP('',(#171));
#125=AXIS2_PLACEMENT_3D('',#172,#173,#174);
#126=SURFACE_SIDE_STYLE('',(#175));
#127=DRAUGHTING_PRE_DEFINED_CURVE_FONT('continuous');
#128=COLOUR_RGB('',0.0,1.0,0.0);
#129=EDGE_LOOP('',(#176));
#130=AXIS2_PLACEMENT_3D('',#177,#178,#179);
#131=SURFACE_SIDE_STYLE('',(#180));
#132=DRAUGHTING_PRE_DEFINED_CURVE_FONT('continuous');
#133=COLOUR_RGB('',0.0,1.0,0.0);
#134=EDGE_LOOP('',(#181));
#135=EDGE_LOOP('',(#182));
#136=AXIS2_PLACEMENT_3D('',#183,#184,#185);
#137=DRAUGHTING_PRE_DEFINED_CURVE_FONT('continuous');
#138=COLOUR_RGB('',0.0,1.0,0.0);
#139=CARTESIAN_POINT('',(0.0,10.0,0.0));
#140=AXIS2_PLACEMENT_3D('',#186,#187,#188);
#141=DRAUGHTING_PRE_DEFINED_CURVE_FONT('continuous');
#142=COLOUR_RGB('',0.0,1.0,0.0);
#143=CARTESIAN_POINT('',(1.03482654527951E-014,11.0,-168.999999999999));
#144=AXIS2_PLACEMENT_3D('',#189,#190,#191);
#145=SURFACE_SIDE_STYLE('',(#192));
#146=DRAUGHTING_PRE_DEFINED_CURVE_FONT('continuous');
#147=COLOUR_RGB('',0.0,1.0,0.0);
#148=EDGE_LOOP('',(#193));
#149=EDGE_LOOP('',(#194));
#150=AXIS2_PLACEMENT_3D('',#195,#196,#197);
#151=SURFACE_SIDE_STYLE('',(#198));
#152=DRAUGHTING_PRE_DEFINED_CURVE_FONT('continuous');
#153=COLOUR_RGB('',0.0,1.0,0.0);
#154=DRAUGHTING_PRE_DEFINED_CURVE_FONT('continuous');
#155=COLOUR_RGB('',0.0,1.0,0.0);
#156=CARTESIAN_POINT('',(9.55224503334935E-015,10.0,-156.0));
#157=AXIS2_PLACEMENT_3D('',#199,#200,#201);
#158=DRAUGHTING_PRE_DEFINED_CURVE_FONT('continuous');
#159=COLOUR_RGB('',0.0,1.0,0.0);
#160=CARTESIAN_POINT('',(9.55224503334935E-015,11.0,-156.0));
#161=AXIS2_PLACEMENT_3D('',#202,#203,#204);
#162=SURFACE_SIDE_STYLE('',(#205));
#163=DRAUGHTING_PRE_DEFINED_CURVE_FONT('continuous');
#164=COLOUR_RGB('',0.0,1.0,0.0);
#165=EDGE_LOOP('',(#206));
#166=EDGE_LOOP('',(#207));
#167=AXIS2_PLACEMENT_3D('',#208,#209,#210);
#169=SURFACE_STYLE_FILL_AREA(#211);
#170=VERTEX_POINT('',#212);
#171=ORIENTED_EDGE('',*,*,#45,.T.);
#172=CARTESIAN_POINT('',(1.06850433225606E-014,2.13700866451213E-014,-174.5));
#173=DIRECTION('',(-6.12323399573677E-017,-1.22464679914742E-016,1.0));
#174=DIRECTION('',(-1.23259516440783E-032,1.0,1.22464679914742E-016));
#175=SURFACE_STYLE_FILL_AREA(#213);
#176=ORIENTED_EDGE('',*,*,#43,.F.);
#177=CARTESIAN_POINT('',(0.0,5.0,0.0));
#178=DIRECTION('',(-6.12323399573677E-017,-1.22464679914735E-016,1.0));
#179=DIRECTION('',(1.23259516440783E-032,-1.0,-1.22464679914735E-016));
#180=SURFACE_STYLE_FILL_AREA(#214);
#181=ORIENTED_EDGE('',*,*,#55,.F.);
#182=ORIENTED_EDGE('',*,*,#53,.T.);
#183=CARTESIAN_POINT('',(9.55224503334935E-015,10.5,-156.0));
#184=DIRECTION('',(-6.12323399573677E-017,1.40883900352873E-014,1.0));
#185=DIRECTION('',(-8.57837935361932E-031,-1.0,1.40883900352873E-014));
#186=CARTESIAN_POINT('',(0.0,0.0,0.0));
#187=DIRECTION('',(6.12323399573677E-017,1.2246467991474E-016,-1.0));
#188=DIRECTION('',(-1.23259516440783E-032,1.0,1.2246467991474E-016));
#189=CARTESIAN_POINT('',(1.03482654527951E-014,2.06965309055902E-014,-168.999999999999));
#190=DIRECTION('',(6.12323399573677E-017,1.22464679914742E-016,-1.0));
#191=DIRECTION('',(-1.23259516440783E-032,1.0,1.22464679914742E-016));
#192=SURFACE_STYLE_FILL_AREA(#215);
#193=ORIENTED_EDGE('',*,*,#45,.F.);
#194=ORIENTED_EDGE('',*,*,#55,.T.);
#195=CARTESIAN_POINT('',(9.95025524307223E-015,1.99005104861444E-014,-162.5));
#196=DIRECTION('',(6.12323399573677E-017,1.22464679914742E-016,-1.0));
#197=DIRECTION('',(-1.23259516440783E-032,1.0,1.22464679914742E-016));
#198=SURFACE_STYLE_FILL_AREA(#216);
#199=CARTESIAN_POINT('',(9.55224503334935E-015,1.91044900666987E-014,-156.0));
#200=DIRECTION('',(6.12323399573677E-017,1.2246467991474E-016,-1.0));
#201=DIRECTION('',(-1.23259516440783E-032,1.0,1.2246467991474E-016));
#202=CARTESIAN_POINT('',(9.55224503334935E-015,1.91044900666987E-014,-156.0));
#203=DIRECTION('',(6.12323399573677E-017,1.22464679914742E-016,-1.0));
#204=DIRECTION('',(-1.23259516440783E-032,1.0,1.22464679914742E-016));
#205=SURFACE_STYLE_FILL_AREA(#217);
#206=ORIENTED_EDGE('',*,*,#53,.F.);
#207=ORIENTED_EDGE('',*,*,#43,.T.);
#208=CARTESIAN_POINT('',(4.77612251667468E-015,9.55224503334935E-015,-78.0));
#209=DIRECTION('',(6.12323399573677E-017,1.2246467991474E-016,-1.0));
#210=DIRECTION('',(-1.23259516440783E-032,1.0,1.2246467991474E-016));
#211=FILL_AREA_STYLE('',(#218));
#212=CARTESIAN_POINT('',(1.10218211923262E-014,2.20436423846523E-014,-180.0));
#213=FILL_AREA_STYLE('',(#219));
#214=FILL_AREA_STYLE('',(#220));
#215=FILL_AREA_STYLE('',(#221));
#216=FILL_AREA_STYLE('',(#222));
#217=FILL_AREA_STYLE('',(#223));
#218=FILL_AREA_STYLE_COLOUR('',#224);
#219=FILL_AREA_STYLE_COLOUR('',#225);
#220=FILL_AREA_STYLE_COLOUR('',#226);
#221=FILL_AREA_STYLE_COLOUR('',#227);
#222=FILL_AREA_STYLE_COLOUR('',#228);
#223=FILL_AREA_STYLE_COLOUR('',#229);
#224=COLOUR_RGB('',0.0,1.0,0.0);
#225=COLOUR_RGB('',0.0,1.0,0.0);
#226=COLOUR_RGB('',0.0,1.0,0.0);
#227=COLOUR_RGB('',0.0,1.0,0.0);
#228=COLOUR_RGB('',0.0,1.0,0.0);
#229=COLOUR_RGB('',0.0,1.0,0.0);
ENDSEC;
END-ISO-10303-21;
