ISO-10303-21;
HEADER;
FILE_DESCRIPTION((''),'1');
FILE_NAME('T:/00_BIG-HP\X2\FF71FF6FFF8CFF9F\X0\/2022_\X2\30C030A630F330ED30FC30C930C730FC30BF\X0\/02_STEP\X2\FF83FF9EFF70FF80\X0\/LINK\X2\7528FF83FF9EFF70FF80FF8EFF99FF80FF9E\X0\/CK\X2\FF8DFF6FFF84FF9E30FBFF71FF78FF7EFF7BFF98\X0\/11_CK\X2\8D85786CFF7DFF84FF9AFF70FF84FF7CFF6CFF9DFF78\X0\/01_CK\X2\8D85786CFF7DFF84FF9AFF70FF84FF7CFF6CFF9DFF78\X0\/\X2\5EA76A19\X0\_\X2\5C5E6027590966F4\X0\/ST19W-CKB1-240.stp','2022-09-28T05:57:11',(''),(''),'Spatial Interop R21 SP3','Kubotek KeyCreator 2011 V10.0.2 (22737)',' ');
FILE_SCHEMA(('automotive_design'));
ENDSEC;
DATA;
#1=MECHANICAL_DESIGN_GEOMETRIC_PRESENTATION_REPRESENTATION(' ',(#10,#11,#12,#13,#14,#15,#16,#17,#18,#19,#20,#21,#22,#23,#24),#6);
#2=PRODUCT_DEFINITION_CONTEXT('',#25,'design');
#3=APPLICATION_PROTOCOL_DEFINITION('INTERNATIONAL STANDARD','automotive_design',1994,#25);
#4=PRODUCT_CATEGORY_RELATIONSHIP('NONE','NONE',#26,#27);
#5=SHAPE_DEFINITION_REPRESENTATION(#28,#29);
#6= (GEOMETRIC_REPRESENTATION_CONTEXT(3)GLOBAL_UNCERTAINTY_ASSIGNED_CONTEXT((#32))GLOBAL_UNIT_ASSIGNED_CONTEXT((#34,#35,#36))REPRESENTATION_CONTEXT('NONE','WORKSPACE'));
#10=STYLED_ITEM('',(#38),#39);
#11=STYLED_ITEM('',(#40,#41),#42);
#12=STYLED_ITEM('',(#43),#44);
#13=STYLED_ITEM('',(#45,#46),#47);
#14=STYLED_ITEM('',(#48),#49);
#15=STYLED_ITEM('',(#50),#51);
#16=STYLED_ITEM('',(#52,#53),#54);
#17=STYLED_ITEM('',(#55,#56),#57);
#18=STYLED_ITEM('',(#58),#59);
#19=STYLED_ITEM('',(#60,#61),#62);
#20=STYLED_ITEM('',(#63,#64),#65);
#21=STYLED_ITEM('',(#66,#67),#68);
#22=STYLED_ITEM('',(#69,#70),#71);
#23=STYLED_ITEM('',(#72),#73);
#24=STYLED_ITEM('',(#74),#75);
#25=APPLICATION_CONTEXT(' ');
#26=PRODUCT_CATEGORY('part','NONE');
#27=PRODUCT_RELATED_PRODUCT_CATEGORY('detail',' ',(#76));
#28=PRODUCT_DEFINITION_SHAPE('NONE','NONE',#77);
#29=ADVANCED_BREP_SHAPE_REPRESENTATION('240[2]',(#71,#78),#6);
#32=UNCERTAINTY_MEASURE_WITH_UNIT(LENGTH_MEASURE(1.0E-006),#34,'','');
#34= (CONVERSION_BASED_UNIT('MILLIMETRE',#81)LENGTH_UNIT()NAMED_UNIT(#84));
#35= (NAMED_UNIT(#86)PLANE_ANGLE_UNIT()SI_UNIT($,.RADIAN.));
#36= (NAMED_UNIT(#86)SOLID_ANGLE_UNIT()SI_UNIT($,.STERADIAN.));
#38=PRESENTATION_STYLE_ASSIGNMENT((#92));
#39=EDGE_CURVE('240[2]',#93,#93,#94,.T.);
#40=PRESENTATION_STYLE_ASSIGNMENT((#95));
#41=PRESENTATION_STYLE_ASSIGNMENT((#96));
#42=ADVANCED_FACE('240[2]',(#97,#98),#99,.F.);
#43=PRESENTATION_STYLE_ASSIGNMENT((#100));
#44=EDGE_CURVE('240[2]',#101,#102,#103,.T.);
#45=PRESENTATION_STYLE_ASSIGNMENT((#104));
#46=PRESENTATION_STYLE_ASSIGNMENT((#105));
#47=ADVANCED_FACE('240[2]',(#106,#107,#108),#109,.T.);
#48=PRESENTATION_STYLE_ASSIGNMENT((#110));
#49=EDGE_CURVE('240[2]',#111,#111,#112,.T.);
#50=PRESENTATION_STYLE_ASSIGNMENT((#113));
#51=EDGE_CURVE('240[2]',#114,#114,#115,.T.);
#52=PRESENTATION_STYLE_ASSIGNMENT((#116));
#53=PRESENTATION_STYLE_ASSIGNMENT((#117));
#54=ADVANCED_FACE('240[2]',(#118,#119),#120,.T.);
#55=PRESENTATION_STYLE_ASSIGNMENT((#121));
#56=PRESENTATION_STYLE_ASSIGNMENT((#122));
#57=ADVANCED_FACE('240[2]',(#123),#124,.F.);
#58=PRESENTATION_STYLE_ASSIGNMENT((#125));
#59=EDGE_CURVE('240[2]',#126,#126,#127,.T.);
#60=PRESENTATION_STYLE_ASSIGNMENT((#128));
#61=PRESENTATION_STYLE_ASSIGNMENT((#129));
#62=ADVANCED_FACE('240[2]',(#130),#131,.T.);
#63=PRESENTATION_STYLE_ASSIGNMENT((#132));
#64=PRESENTATION_STYLE_ASSIGNMENT((#133));
#65=ADVANCED_FACE('240[2]',(#134),#135,.T.);
#66=PRESENTATION_STYLE_ASSIGNMENT((#136));
#67=PRESENTATION_STYLE_ASSIGNMENT((#137));
#68=ADVANCED_FACE('240[2]',(#138,#139),#140,.F.);
#69=PRESENTATION_STYLE_ASSIGNMENT((#141));
#70=PRESENTATION_STYLE_ASSIGNMENT((#142));
#71=MANIFOLD_SOLID_BREP('240[2]',#143);
#72=PRESENTATION_STYLE_ASSIGNMENT((#144));
#73=EDGE_CURVE('240[2]',#102,#101,#145,.T.);
#74=PRESENTATION_STYLE_ASSIGNMENT((#146));
#75=EDGE_CURVE('240[2]',#147,#147,#148,.T.);
#76=PRODUCT('240[2]','240[2]','PART-240[2]-DESC',(#149));
#77=PRODUCT_DEFINITION('NONE','NONE',#150,#2);
#78=AXIS2_PLACEMENT_3D('',#151,#152,#153);
#81=LENGTH_MEASURE_WITH_UNIT(LENGTH_MEASURE(1.0),#154);
#84=DIMENSIONAL_EXPONENTS(1.0,0.0,0.0,0.0,0.0,0.0,0.0);
#86=DIMENSIONAL_EXPONENTS(0.0,0.0,0.0,0.0,0.0,0.0,0.0);
#92=CURVE_STYLE('',#155,POSITIVE_LENGTH_MEASURE(1000.0),#156);
#93=VERTEX_POINT('',#157);
#94=CIRCLE('',#158,9.5);
#95=SURFACE_STYLE_USAGE(.BOTH.,#159);
#96=CURVE_STYLE('',#160,POSITIVE_LENGTH_MEASURE(1000.0),#161);
#97=FACE_BOUND('',#162,.T.);
#98=FACE_BOUND('',#163,.T.);
#99=CYLINDRICAL_SURFACE('',#164,2.1);
#100=CURVE_STYLE('',#165,POSITIVE_LENGTH_MEASURE(1000.0),#166);
#101=VERTEX_POINT('',#167);
#102=VERTEX_POINT('',#168);
#103=B_SPLINE_CURVE_WITH_KNOTS('',3,(#169,#170,#171,#172,#173,#174,#175,#176,#177,#178,#179,#180,#181,#182,#183,#184,#185,#186,#187,#188,#189,#190,#191,#192,#193,#194,#195,#196,#197,#198,#199,#200,#201,#202,#203,#204,#205,#206,#207,#208,#209,#210,#211,#212,#213,#214,#215,#216,#217,#218,#219,#220,#221,#222,#223,#224,#225,#226,#227,#228,#229,#230,#231,#232,#233,#234),.UNSPECIFIED.,.T.,.F.,(4,2,2,2,2,2,2,2,2,2,2,2,2,2,2,2,2,2,2,2,2,2,2,2,2,2,2,2,2,2,2,2,4),(0.0,0.39695237257999,0.79390474515998,1.19085711773997,1.58780949031996,1.9847283842422,2.38164727816444,2.77856617208668,3.17548506600891,3.57240395993115,3.96932285385339,4.36624174777563,4.76316064169787,5.16011301427786,5.55706538685785,5.95401775943784,6.35097013201783,6.74792250459782,7.14487487717781,7.5418272497578,7.93877962233779,8.33569851626003,8.73261741018227,9.12953630410451,9.52645519802674,9.92337409194898,10.3202929858712,10.7172118797935,11.1141307737157,11.5110831462957,11.9080355188757,12.3049878914557,12.7019402640357),.UNSPECIFIED.);
#104=SURFACE_STYLE_USAGE(.BOTH.,#235);
#105=CURVE_STYLE('',#236,POSITIVE_LENGTH_MEASURE(1000.0),#237);
#106=FACE_BOUND('',#238,.T.);
#107=FACE_BOUND('',#239,.T.);
#108=FACE_BOUND('',#240,.T.);
#109=CYLINDRICAL_SURFACE('',#241,9.5);
#110=CURVE_STYLE('',#242,POSITIVE_LENGTH_MEASURE(1000.0),#243);
#111=VERTEX_POINT('',#244);
#112=CIRCLE('',#245,2.1);
#113=CURVE_STYLE('',#246,POSITIVE_LENGTH_MEASURE(1000.0),#247);
#114=VERTEX_POINT('',#248);
#115=CIRCLE('',#249,9.5);
#116=SURFACE_STYLE_USAGE(.BOTH.,#250);
#117=CURVE_STYLE('',#251,POSITIVE_LENGTH_MEASURE(1000.0),#252);
#118=FACE_BOUND('',#253,.T.);
#119=FACE_OUTER_BOUND('',#254,.T.);
#120=PLANE('',#255);
#121=SURFACE_STYLE_USAGE(.BOTH.,#256);
#122=CURVE_STYLE('',#257,POSITIVE_LENGTH_MEASURE(1000.0),#258);
#123=FACE_OUTER_BOUND('',#259,.T.);
#124=PLANE('',#260);
#125=CURVE_STYLE('',#261,POSITIVE_LENGTH_MEASURE(1000.0),#262);
#126=VERTEX_POINT('',#263);
#127=CIRCLE('',#264,5.5);
#128=SURFACE_STYLE_USAGE(.BOTH.,#265);
#129=CURVE_STYLE('',#266,POSITIVE_LENGTH_MEASURE(1000.0),#267);
#130=FACE_OUTER_BOUND('',#268,.T.);
#131=PLANE('',#269);
#132=SURFACE_STYLE_USAGE(.BOTH.,#270);
#133=CURVE_STYLE('',#271,POSITIVE_LENGTH_MEASURE(1000.0),#272);
#134=FACE_OUTER_BOUND('',#273,.T.);
#135=PLANE('',#274);
#136=SURFACE_STYLE_USAGE(.BOTH.,#275);
#137=CURVE_STYLE('',#276,POSITIVE_LENGTH_MEASURE(1000.0),#277);
#138=FACE_BOUND('',#278,.T.);
#139=FACE_BOUND('',#279,.T.);
#140=CYLINDRICAL_SURFACE('',#280,5.5);
#141=SURFACE_STYLE_USAGE(.BOTH.,#281);
#142=CURVE_STYLE('',#282,POSITIVE_LENGTH_MEASURE(1000.0),#283);
#143=CLOSED_SHELL('',(#42,#65,#68,#57,#62,#47,#54));
#144=CURVE_STYLE('',#284,POSITIVE_LENGTH_MEASURE(1000.0),#285);
#145=B_SPLINE_CURVE_WITH_KNOTS('',3,(#286,#287,#288,#289,#290,#291,#292,#293,#294,#295,#296,#297,#298,#299,#300,#301,#302,#303,#304,#305,#306,#307,#308,#309,#310,#311,#312,#313,#314,#315,#316,#317,#318,#319,#320,#321,#322,#323,#324,#325,#326,#327,#328,#329,#330,#331,#332,#333,#334,#335,#336,#337,#338,#339,#340,#341,#342,#343,#344,#345,#346,#347,#348,#349,#350,#351),.UNSPECIFIED.,.T.,.F.,(4,2,2,2,2,2,2,2,2,2,2,2,2,2,2,2,2,2,2,2,2,2,2,2,2,2,2,2,2,2,2,2,4),(0.0,0.39695237257999,0.79390474515998,1.19085711773997,1.58780949031996,1.9847283842422,2.38164727816444,2.77856617208668,3.17548506600891,3.57240395993115,3.96932285385339,4.36624174777563,4.76316064169787,5.16011301427786,5.55706538685785,5.95401775943784,6.35097013201783,6.74792250459782,7.14487487717781,7.5418272497578,7.93877962233779,8.33569851626003,8.73261741018227,9.12953630410451,9.52645519802674,9.92337409194898,10.3202929858712,10.7172118797935,11.1141307737157,11.5110831462957,11.9080355188757,12.3049878914557,12.7019402640357),.UNSPECIFIED.);
#146=CURVE_STYLE('',#352,POSITIVE_LENGTH_MEASURE(1000.0),#353);
#147=VERTEX_POINT('',#354);
#148=CIRCLE('',#355,5.5);
#149=PRODUCT_CONTEXT('',#25,'mechanical');
#150=PRODUCT_DEFINITION_FORMATION_WITH_SPECIFIED_SOURCE(' ','NONE',#76,.NOT_KNOWN.);
#151=CARTESIAN_POINT('',(0.0,0.0,0.0));
#152=DIRECTION('',(0.0,0.0,1.0));
#153=DIRECTION('',(1.0,0.0,0.0));
#154= (NAMED_UNIT(#84)LENGTH_UNIT()SI_UNIT(.MILLI.,.METRE.));
#155=DRAUGHTING_PRE_DEFINED_CURVE_FONT('continuous');
#156=COLOUR_RGB('',0.501960813999176,0.501960813999176,0.501960813999176);
#157=CARTESIAN_POINT('',(-1.17096540618744E-031,9.5,1.16341445918999E-015));
#158=AXIS2_PLACEMENT_3D('',#357,#358,#359);
#159=SURFACE_SIDE_STYLE('',(#360));
#160=DRAUGHTING_PRE_DEFINED_CURVE_FONT('continuous');
#161=COLOUR_RGB('',0.501960813999176,0.501960813999176,0.501960813999176);
#162=EDGE_LOOP('',(#361,#362));
#163=EDGE_LOOP('',(#363));
#164=AXIS2_PLACEMENT_3D('',#364,#365,#366);
#165=DRAUGHTING_PRE_DEFINED_CURVE_FONT('continuous');
#166=COLOUR_RGB('',0.501960813999176,0.501960813999176,0.501960813999176);
#167=CARTESIAN_POINT('',(-4.79449221866189E-015,9.5,2.9));
#168=CARTESIAN_POINT('',(-4.28014056302E-015,9.5,7.1));
#169=CARTESIAN_POINT('',(2.1,9.26498785752038,5.0));
#170=CARTESIAN_POINT('',(2.1,9.26498785752038,5.13231745752666));
#171=CARTESIAN_POINT('',(2.08729276693529,9.26789921901989,5.26900863845982));
#172=CARTESIAN_POINT('',(2.03393053016163,9.27975611893229,5.54063235325536));
#173=CARTESIAN_POINT('',(1.99328855236909,9.28869225107125,5.67556785649964));
#174=CARTESIAN_POINT('',(1.88599937129834,9.31106917764846,5.93412938375652));
#175=CARTESIAN_POINT('',(1.81926688429353,9.3245057039821,6.05796970411625));
#176=CARTESIAN_POINT('',(1.66522589677435,9.35324335897208,6.28687785141605));
#177=CARTESIAN_POINT('',(1.57790646116224,9.36851500591358,6.39194201982126));
#178=CARTESIAN_POINT('',(1.39194986187022,9.39794319537222,6.57789861911328));
#179=CARTESIAN_POINT('',(1.28688934092167,9.41314073160093,6.66521717711817));
#180=CARTESIAN_POINT('',(1.05797891274082,9.44160914403958,6.81926167530234));
#181=CARTESIAN_POINT('',(0.93413266907005,9.45485229980436,6.88599818100749));
#182=CARTESIAN_POINT('',(0.675559563917767,9.4768378232422,6.99329182040496));
#183=CARTESIAN_POINT('',(0.540618581817237,9.48557906319787,7.03393422932773));
#184=CARTESIAN_POINT('',(0.268993374094956,9.49716384926986,7.08729477193439));
#185=CARTESIAN_POINT('',(0.132306297974075,9.5,7.09999999999999));
#186=CARTESIAN_POINT('',(-0.132306297974084,9.5,7.09999999999999));
#187=CARTESIAN_POINT('',(-0.268993374094965,9.49716384926986,7.08729477193439));
#188=CARTESIAN_POINT('',(-0.540618581817246,9.48557906319787,7.03393422932773));
#189=CARTESIAN_POINT('',(-0.675559563917776,9.4768378232422,6.99329182040496));
#190=CARTESIAN_POINT('',(-0.934132669070058,9.45485229980436,6.8859981810075));
#191=CARTESIAN_POINT('',(-1.05797891274083,9.44160914403958,6.81926167530234));
#192=CARTESIAN_POINT('',(-1.28688934092168,9.41314073160093,6.66521717711817));
#193=CARTESIAN_POINT('',(-1.39194986187023,9.39794319537222,6.57789861911328));
#194=CARTESIAN_POINT('',(-1.57790646116225,9.36851500591358,6.39194201982126));
#195=CARTESIAN_POINT('',(-1.66522589677436,9.35324335897208,6.28687785141605));
#196=CARTESIAN_POINT('',(-1.81926688429354,9.32450570398209,6.05796970411625));
#197=CARTESIAN_POINT('',(-1.88599937129835,9.31106917764846,5.93412938375652));
#198=CARTESIAN_POINT('',(-1.9932885523691,9.28869225107125,5.67556785649964));
#199=CARTESIAN_POINT('',(-2.03393053016164,9.27975611893228,5.54063235325536));
#200=CARTESIAN_POINT('',(-2.0872927669353,9.26789921901988,5.26900863845982));
#201=CARTESIAN_POINT('',(-2.1,9.26498785752037,5.13231745752666));
#202=CARTESIAN_POINT('',(-2.1,9.26498785752037,4.86768254247334));
#203=CARTESIAN_POINT('',(-2.0872927669353,9.26789921901988,4.73099136154018));
#204=CARTESIAN_POINT('',(-2.03393053016164,9.27975611893228,4.45936764674464));
#205=CARTESIAN_POINT('',(-1.9932885523691,9.28869225107125,4.32443214350036));
#206=CARTESIAN_POINT('',(-1.88599937129835,9.31106917764846,4.06587061624349));
#207=CARTESIAN_POINT('',(-1.81926688429354,9.32450570398209,3.94203029588375));
#208=CARTESIAN_POINT('',(-1.66522589677436,9.35324335897208,3.71312214858395));
#209=CARTESIAN_POINT('',(-1.57790646116225,9.36851500591358,3.60805798017874));
#210=CARTESIAN_POINT('',(-1.39194986187023,9.39794319537222,3.42210138088672));
#211=CARTESIAN_POINT('',(-1.28688934092168,9.41314073160093,3.33478282288183));
#212=CARTESIAN_POINT('',(-1.05797891274083,9.44160914403958,3.18073832469766));
#213=CARTESIAN_POINT('',(-0.93413266907006,9.45485229980436,3.1140018189925));
#214=CARTESIAN_POINT('',(-0.675559563917776,9.4768378232422,3.00670817959504));
#215=CARTESIAN_POINT('',(-0.540618581817247,9.48557906319787,2.96606577067227));
#216=CARTESIAN_POINT('',(-0.268993374094965,9.49716384926986,2.91270522806561));
#217=CARTESIAN_POINT('',(-0.132306297974084,9.5,2.90000000000001));
#218=CARTESIAN_POINT('',(0.132306297974075,9.5,2.90000000000001));
#219=CARTESIAN_POINT('',(0.268993374094956,9.49716384926986,2.91270522806561));
#220=CARTESIAN_POINT('',(0.540618581817237,9.48557906319787,2.96606577067227));
#221=CARTESIAN_POINT('',(0.675559563917766,9.4768378232422,3.00670817959504));
#222=CARTESIAN_POINT('',(0.934132669070049,9.45485229980436,3.1140018189925));
#223=CARTESIAN_POINT('',(1.05797891274082,9.44160914403958,3.18073832469766));
#224=CARTESIAN_POINT('',(1.28688934092167,9.41314073160093,3.33478282288183));
#225=CARTESIAN_POINT('',(1.39194986187022,9.39794319537222,3.42210138088672));
#226=CARTESIAN_POINT('',(1.57790646116224,9.36851500591358,3.60805798017874));
#227=CARTESIAN_POINT('',(1.66522589677435,9.35324335897208,3.71312214858395));
#228=CARTESIAN_POINT('',(1.81926688429353,9.3245057039821,3.94203029588375));
#229=CARTESIAN_POINT('',(1.88599937129834,9.31106917764846,4.06587061624349));
#230=CARTESIAN_POINT('',(1.99328855236909,9.28869225107125,4.32443214350036));
#231=CARTESIAN_POINT('',(2.03393053016163,9.27975611893229,4.45936764674464));
#232=CARTESIAN_POINT('',(2.08729276693529,9.26789921901989,4.73099136154018));
#233=CARTESIAN_POINT('',(2.1,9.26498785752038,4.86768254247334));
#234=CARTESIAN_POINT('',(2.1,9.26498785752038,5.0));
#235=SURFACE_SIDE_STYLE('',(#367));
#236=DRAUGHTING_PRE_DEFINED_CURVE_FONT('continuous');
#237=COLOUR_RGB('',0.501960813999176,0.501960813999176,0.501960813999176);
#238=EDGE_LOOP('',(#368,#369));
#239=EDGE_LOOP('',(#370));
#240=EDGE_LOOP('',(#371));
#241=AXIS2_PLACEMENT_3D('',#372,#373,#374);
#242=DRAUGHTING_PRE_DEFINED_CURVE_FONT('continuous');
#243=COLOUR_RGB('',0.501960813999176,0.501960813999176,0.501960813999176);
#244=CARTESIAN_POINT('',(2.1,9.2,5.0));
#245=AXIS2_PLACEMENT_3D('',#375,#376,#377);
#246=DRAUGHTING_PRE_DEFINED_CURVE_FONT('continuous');
#247=COLOUR_RGB('',0.501960813999176,0.501960813999176,0.501960813999176);
#248=CARTESIAN_POINT('',(-1.46957615897682E-014,9.49999999999997,240.0));
#249=AXIS2_PLACEMENT_3D('',#378,#379,#380);
#250=SURFACE_SIDE_STYLE('',(#381));
#251=DRAUGHTING_PRE_DEFINED_CURVE_FONT('continuous');
#252=COLOUR_RGB('',0.501960813999176,0.501960813999176,0.501960813999176);
#253=EDGE_LOOP('',(#382));
#254=EDGE_LOOP('',(#383));
#255=AXIS2_PLACEMENT_3D('',#384,#385,#386);
#256=SURFACE_SIDE_STYLE('',(#387));
#257=DRAUGHTING_PRE_DEFINED_CURVE_FONT('continuous');
#258=COLOUR_RGB('',0.501960813999176,0.501960813999176,0.501960813999176);
#259=EDGE_LOOP('',(#388));
#260=AXIS2_PLACEMENT_3D('',#389,#390,#391);
#261=DRAUGHTING_PRE_DEFINED_CURVE_FONT('continuous');
#262=COLOUR_RGB('',0.501960813999176,0.501960813999176,0.501960813999176);
#263=CARTESIAN_POINT('',(5.5,0.0,14.0));
#264=AXIS2_PLACEMENT_3D('',#392,#393,#394);
#265=SURFACE_SIDE_STYLE('',(#395));
#266=DRAUGHTING_PRE_DEFINED_CURVE_FONT('continuous');
#267=COLOUR_RGB('',0.501960813999176,0.501960813999176,0.501960813999176);
#268=EDGE_LOOP('',(#396));
#269=AXIS2_PLACEMENT_3D('',#397,#398,#399);
#270=SURFACE_SIDE_STYLE('',(#400));
#271=DRAUGHTING_PRE_DEFINED_CURVE_FONT('continuous');
#272=COLOUR_RGB('',0.501960813999176,0.501960813999176,0.501960813999176);
#273=EDGE_LOOP('',(#401));
#274=AXIS2_PLACEMENT_3D('',#402,#403,#404);
#275=SURFACE_SIDE_STYLE('',(#405));
#276=DRAUGHTING_PRE_DEFINED_CURVE_FONT('continuous');
#277=COLOUR_RGB('',0.501960813999176,0.501960813999176,0.501960813999176);
#278=EDGE_LOOP('',(#406));
#279=EDGE_LOOP('',(#407));
#280=AXIS2_PLACEMENT_3D('',#408,#409,#410);
#281=SURFACE_SIDE_STYLE('',(#411));
#282=DRAUGHTING_PRE_DEFINED_CURVE_FONT('continuous');
#283=COLOUR_RGB('',0.501960813999176,0.501960813999176,0.501960813999176);
#284=DRAUGHTING_PRE_DEFINED_CURVE_FONT('continuous');
#285=COLOUR_RGB('',0.501960813999176,0.501960813999176,0.501960813999176);
#286=CARTESIAN_POINT('',(2.1,9.26498785752038,5.0));
#287=CARTESIAN_POINT('',(2.1,9.26498785752038,5.13231745752666));
#288=CARTESIAN_POINT('',(2.08729276693529,9.26789921901989,5.26900863845982));
#289=CARTESIAN_POINT('',(2.03393053016163,9.27975611893229,5.54063235325536));
#290=CARTESIAN_POINT('',(1.99328855236909,9.28869225107125,5.67556785649964));
#291=CARTESIAN_POINT('',(1.88599937129834,9.31106917764846,5.93412938375652));
#292=CARTESIAN_POINT('',(1.81926688429353,9.3245057039821,6.05796970411625));
#293=CARTESIAN_POINT('',(1.66522589677435,9.35324335897208,6.28687785141605));
#294=CARTESIAN_POINT('',(1.57790646116224,9.36851500591358,6.39194201982126));
#295=CARTESIAN_POINT('',(1.39194986187022,9.39794319537222,6.57789861911328));
#296=CARTESIAN_POINT('',(1.28688934092167,9.41314073160093,6.66521717711817));
#297=CARTESIAN_POINT('',(1.05797891274082,9.44160914403958,6.81926167530234));
#298=CARTESIAN_POINT('',(0.93413266907005,9.45485229980436,6.88599818100749));
#299=CARTESIAN_POINT('',(0.675559563917767,9.4768378232422,6.99329182040496));
#300=CARTESIAN_POINT('',(0.540618581817237,9.48557906319787,7.03393422932773));
#301=CARTESIAN_POINT('',(0.268993374094956,9.49716384926986,7.08729477193439));
#302=CARTESIAN_POINT('',(0.132306297974075,9.5,7.09999999999999));
#303=CARTESIAN_POINT('',(-0.132306297974084,9.5,7.09999999999999));
#304=CARTESIAN_POINT('',(-0.268993374094965,9.49716384926986,7.08729477193439));
#305=CARTESIAN_POINT('',(-0.540618581817246,9.48557906319787,7.03393422932773));
#306=CARTESIAN_POINT('',(-0.675559563917776,9.4768378232422,6.99329182040496));
#307=CARTESIAN_POINT('',(-0.934132669070058,9.45485229980436,6.8859981810075));
#308=CARTESIAN_POINT('',(-1.05797891274083,9.44160914403958,6.81926167530234));
#309=CARTESIAN_POINT('',(-1.28688934092168,9.41314073160093,6.66521717711817));
#310=CARTESIAN_POINT('',(-1.39194986187023,9.39794319537222,6.57789861911328));
#311=CARTESIAN_POINT('',(-1.57790646116225,9.36851500591358,6.39194201982126));
#312=CARTESIAN_POINT('',(-1.66522589677436,9.35324335897208,6.28687785141605));
#313=CARTESIAN_POINT('',(-1.81926688429354,9.32450570398209,6.05796970411625));
#314=CARTESIAN_POINT('',(-1.88599937129835,9.31106917764846,5.93412938375652));
#315=CARTESIAN_POINT('',(-1.9932885523691,9.28869225107125,5.67556785649964));
#316=CARTESIAN_POINT('',(-2.03393053016164,9.27975611893228,5.54063235325536));
#317=CARTESIAN_POINT('',(-2.0872927669353,9.26789921901988,5.26900863845982));
#318=CARTESIAN_POINT('',(-2.1,9.26498785752037,5.13231745752666));
#319=CARTESIAN_POINT('',(-2.1,9.26498785752037,4.86768254247334));
#320=CARTESIAN_POINT('',(-2.0872927669353,9.26789921901988,4.73099136154018));
#321=CARTESIAN_POINT('',(-2.03393053016164,9.27975611893228,4.45936764674464));
#322=CARTESIAN_POINT('',(-1.9932885523691,9.28869225107125,4.32443214350036));
#323=CARTESIAN_POINT('',(-1.88599937129835,9.31106917764846,4.06587061624349));
#324=CARTESIAN_POINT('',(-1.81926688429354,9.32450570398209,3.94203029588375));
#325=CARTESIAN_POINT('',(-1.66522589677436,9.35324335897208,3.71312214858395));
#326=CARTESIAN_POINT('',(-1.57790646116225,9.36851500591358,3.60805798017874));
#327=CARTESIAN_POINT('',(-1.39194986187023,9.39794319537222,3.42210138088672));
#328=CARTESIAN_POINT('',(-1.28688934092168,9.41314073160093,3.33478282288183));
#329=CARTESIAN_POINT('',(-1.05797891274083,9.44160914403958,3.18073832469766));
#330=CARTESIAN_POINT('',(-0.93413266907006,9.45485229980436,3.1140018189925));
#331=CARTESIAN_POINT('',(-0.675559563917776,9.4768378232422,3.00670817959504));
#332=CARTESIAN_POINT('',(-0.540618581817247,9.48557906319787,2.96606577067227));
#333=CARTESIAN_POINT('',(-0.268993374094965,9.49716384926986,2.91270522806561));
#334=CARTESIAN_POINT('',(-0.132306297974084,9.5,2.90000000000001));
#335=CARTESIAN_POINT('',(0.132306297974075,9.5,2.90000000000001));
#336=CARTESIAN_POINT('',(0.268993374094956,9.49716384926986,2.91270522806561));
#337=CARTESIAN_POINT('',(0.540618581817237,9.48557906319787,2.96606577067227));
#338=CARTESIAN_POINT('',(0.675559563917766,9.4768378232422,3.00670817959504));
#339=CARTESIAN_POINT('',(0.934132669070049,9.45485229980436,3.1140018189925));
#340=CARTESIAN_POINT('',(1.05797891274082,9.44160914403958,3.18073832469766));
#341=CARTESIAN_POINT('',(1.28688934092167,9.41314073160093,3.33478282288183));
#342=CARTESIAN_POINT('',(1.39194986187022,9.39794319537222,3.42210138088672));
#343=CARTESIAN_POINT('',(1.57790646116224,9.36851500591358,3.60805798017874));
#344=CARTESIAN_POINT('',(1.66522589677435,9.35324335897208,3.71312214858395));
#345=CARTESIAN_POINT('',(1.81926688429353,9.3245057039821,3.94203029588375));
#346=CARTESIAN_POINT('',(1.88599937129834,9.31106917764846,4.06587061624349));
#347=CARTESIAN_POINT('',(1.99328855236909,9.28869225107125,4.32443214350036));
#348=CARTESIAN_POINT('',(2.03393053016163,9.27975611893229,4.45936764674464));
#349=CARTESIAN_POINT('',(2.08729276693529,9.26789921901989,4.73099136154018));
#350=CARTESIAN_POINT('',(2.1,9.26498785752038,4.86768254247334));
#351=CARTESIAN_POINT('',(2.1,9.26498785752038,5.0));
#352=DRAUGHTING_PRE_DEFINED_CURVE_FONT('continuous');
#353=COLOUR_RGB('',0.501960813999176,0.501960813999176,0.501960813999176);
#354=CARTESIAN_POINT('',(5.5,0.0,0.0));
#355=AXIS2_PLACEMENT_3D('',#412,#413,#414);
#357=CARTESIAN_POINT('',(0.0,0.0,0.0));
#358=DIRECTION('',(6.12323399573677E-017,1.22464679914735E-016,-1.0));
#359=DIRECTION('',(-1.23259516440783E-032,1.0,1.22464679914735E-016));
#360=SURFACE_STYLE_FILL_AREA(#415);
#361=ORIENTED_EDGE('',*,*,#73,.F.);
#362=ORIENTED_EDGE('',*,*,#44,.F.);
#363=ORIENTED_EDGE('',*,*,#49,.F.);
#364=CARTESIAN_POINT('',(-4.40872847693047E-015,9.5,5.0));
#365=DIRECTION('',(0.0,-1.0,0.0));
#366=DIRECTION('',(1.0,0.0,0.0));
#367=SURFACE_STYLE_FILL_AREA(#416);
#368=ORIENTED_EDGE('',*,*,#73,.T.);
#369=ORIENTED_EDGE('',*,*,#44,.T.);
#370=ORIENTED_EDGE('',*,*,#39,.F.);
#371=ORIENTED_EDGE('',*,*,#51,.T.);
#372=CARTESIAN_POINT('',(-7.34788079488412E-015,-1.46957615897682E-014,120.0));
#373=DIRECTION('',(-6.12323399573677E-017,-1.22464679914735E-016,1.0));
#374=DIRECTION('',(-1.23259516440783E-032,1.0,1.22464679914735E-016));
#375=CARTESIAN_POINT('',(-4.40872847693047E-015,9.2,5.0));
#376=DIRECTION('',(-0.0,1.0,0.0));
#377=DIRECTION('',(1.0,0.0,0.0));
#378=CARTESIAN_POINT('',(-1.46957615897682E-014,-2.93915231795365E-014,240.0));
#379=DIRECTION('',(6.12323399573677E-017,1.22464679914735E-016,-1.0));
#380=DIRECTION('',(-1.23259516440783E-032,1.0,1.22464679914735E-016));
#381=SURFACE_STYLE_FILL_AREA(#417);
#382=ORIENTED_EDGE('',*,*,#75,.T.);
#383=ORIENTED_EDGE('',*,*,#39,.T.);
#384=CARTESIAN_POINT('',(-5.8548270309372E-032,4.75,5.81707229594993E-016));
#385=DIRECTION('',(6.12323399573677E-017,1.22464679914735E-016,-1.0));
#386=DIRECTION('',(-1.0,0.0,-6.12323399573677E-017));
#387=SURFACE_STYLE_FILL_AREA(#418);
#388=ORIENTED_EDGE('',*,*,#59,.T.);
#389=CARTESIAN_POINT('',(0.974294846427556,5.413016677623,14.0));
#390=DIRECTION('',(0.0,0.0,1.0));
#391=DIRECTION('',(1.0,0.0,0.0));
#392=CARTESIAN_POINT('',(0.0,0.0,14.0));
#393=DIRECTION('',(0.0,0.0,-1.0));
#394=DIRECTION('',(1.0,0.0,0.0));
#395=SURFACE_STYLE_FILL_AREA(#419);
#396=ORIENTED_EDGE('',*,*,#51,.F.);
#397=CARTESIAN_POINT('',(-1.46957615897682E-014,4.74999999999997,240.0));
#398=DIRECTION('',(-9.18338008663382E-049,-1.22464679914735E-016,1.0));
#399=DIRECTION('',(1.0,-7.49879891330927E-033,0.0));
#400=SURFACE_STYLE_FILL_AREA(#420);
#401=ORIENTED_EDGE('',*,*,#49,.T.);
#402=CARTESIAN_POINT('',(0.37200348681779,9.2,2.9332118139985));
#403=DIRECTION('',(-0.0,1.0,0.0));
#404=DIRECTION('',(1.0,0.0,0.0));
#405=SURFACE_STYLE_FILL_AREA(#421);
#406=ORIENTED_EDGE('',*,*,#59,.F.);
#407=ORIENTED_EDGE('',*,*,#75,.F.);
#408=CARTESIAN_POINT('',(0.0,0.0,0.0));
#409=DIRECTION('',(0.0,0.0,-1.0));
#410=DIRECTION('',(1.0,0.0,0.0));
#411=SURFACE_STYLE_FILL_AREA(#422);
#412=CARTESIAN_POINT('',(0.0,0.0,5.81707229594993E-016));
#413=DIRECTION('',(-6.12323399573677E-017,-1.22464679914735E-016,1.0));
#414=DIRECTION('',(1.0,-7.49879891330927E-033,6.12323399573677E-017));
#415=FILL_AREA_STYLE('',(#423));
#416=FILL_AREA_STYLE('',(#424));
#417=FILL_AREA_STYLE('',(#425));
#418=FILL_AREA_STYLE('',(#426));
#419=FILL_AREA_STYLE('',(#427));
#420=FILL_AREA_STYLE('',(#428));
#421=FILL_AREA_STYLE('',(#429));
#422=FILL_AREA_STYLE('',(#430));
#423=FILL_AREA_STYLE_COLOUR('',#431);
#424=FILL_AREA_STYLE_COLOUR('',#432);
#425=FILL_AREA_STYLE_COLOUR('',#433);
#426=FILL_AREA_STYLE_COLOUR('',#434);
#427=FILL_AREA_STYLE_COLOUR('',#435);
#428=FILL_AREA_STYLE_COLOUR('',#436);
#429=FILL_AREA_STYLE_COLOUR('',#437);
#430=FILL_AREA_STYLE_COLOUR('',#438);
#431=COLOUR_RGB('',0.501960813999176,0.501960813999176,0.501960813999176);
#432=COLOUR_RGB('',0.501960813999176,0.501960813999176,0.501960813999176);
#433=COLOUR_RGB('',0.501960813999176,0.501960813999176,0.501960813999176);
#434=COLOUR_RGB('',0.501960813999176,0.501960813999176,0.501960813999176);
#435=COLOUR_RGB('',0.501960813999176,0.501960813999176,0.501960813999176);
#436=COLOUR_RGB('',0.501960813999176,0.501960813999176,0.501960813999176);
#437=COLOUR_RGB('',0.501960813999176,0.501960813999176,0.501960813999176);
#438=COLOUR_RGB('',0.501960813999176,0.501960813999176,0.501960813999176);
ENDSEC;
END-ISO-10303-21;
