ISO-10303-21;
HEADER;
FILE_DESCRIPTION((''),'1');
FILE_NAME('T:/00_BIG-HP\X2\FF71FF6FFF8CFF9F\X0\/2022_\X2\30C030A630F330ED30FC30C930C730FC30BF\X0\/02_STEP\X2\FF83FF9EFF70FF80\X0\/LINK\X2\7528FF83FF9EFF70FF80FF8EFF99FF80FF9E\X0\/CK\X2\FF8DFF6FFF84FF9E30FBFF71FF78FF7EFF7BFF98\X0\/11_CK\X2\8D85786CFF7DFF84FF9AFF70FF84FF7CFF6CFF9DFF78\X0\/01_CK\X2\8D85786CFF7DFF84FF9AFF70FF84FF7CFF6CFF9DFF78\X0\/\X2\5EA76A19\X0\_\X2\5C5E6027590966F4\X0\/ST19W-CKB1-190.stp','2022-09-28T05:54:57',(''),(''),'Spatial Interop R21 SP3','Kubotek KeyCreator 2011 V10.0.2 (22737)',' ');
FILE_SCHEMA(('automotive_design'));
ENDSEC;
DATA;
#1=MECHANICAL_DESIGN_GEOMETRIC_PRESENTATION_REPRESENTATION(' ',(#10,#11,#12,#13,#14,#15,#16,#17,#18,#19,#20,#21,#22,#23,#24),#6);
#2=PRODUCT_DEFINITION_CONTEXT('',#25,'design');
#3=APPLICATION_PROTOCOL_DEFINITION('INTERNATIONAL STANDARD','automotive_design',1994,#25);
#4=PRODUCT_CATEGORY_RELATIONSHIP('NONE','NONE',#26,#27);
#5=SHAPE_DEFINITION_REPRESENTATION(#28,#29);
#6= (GEOMETRIC_REPRESENTATION_CONTEXT(3)GLOBAL_UNCERTAINTY_ASSIGNED_CONTEXT((#32))GLOBAL_UNIT_ASSIGNED_CONTEXT((#34,#35,#36))REPRESENTATION_CONTEXT('NONE','WORKSPACE'));
#10=STYLED_ITEM('',(#38,#39),#40);
#11=STYLED_ITEM('',(#41,#42),#43);
#12=STYLED_ITEM('',(#44),#45);
#13=STYLED_ITEM('',(#46),#47);
#14=STYLED_ITEM('',(#48,#49),#50);
#15=STYLED_ITEM('',(#51,#52),#53);
#16=STYLED_ITEM('',(#54),#55);
#17=STYLED_ITEM('',(#56),#57);
#18=STYLED_ITEM('',(#58,#59),#60);
#19=STYLED_ITEM('',(#61,#62),#63);
#20=STYLED_ITEM('',(#64),#65);
#21=STYLED_ITEM('',(#66),#67);
#22=STYLED_ITEM('',(#68),#69);
#23=STYLED_ITEM('',(#70,#71),#72);
#24=STYLED_ITEM('',(#73,#74),#75);
#25=APPLICATION_CONTEXT(' ');
#26=PRODUCT_CATEGORY('part','NONE');
#27=PRODUCT_RELATED_PRODUCT_CATEGORY('detail',' ',(#76));
#28=PRODUCT_DEFINITION_SHAPE('NONE','NONE',#77);
#29=ADVANCED_BREP_SHAPE_REPRESENTATION('240[2]',(#60,#78),#6);
#32=UNCERTAINTY_MEASURE_WITH_UNIT(LENGTH_MEASURE(1.0E-006),#34,'','');
#34= (CONVERSION_BASED_UNIT('MILLIMETRE',#81)LENGTH_UNIT()NAMED_UNIT(#84));
#35= (NAMED_UNIT(#86)PLANE_ANGLE_UNIT()SI_UNIT($,.RADIAN.));
#36= (NAMED_UNIT(#86)SOLID_ANGLE_UNIT()SI_UNIT($,.STERADIAN.));
#38=PRESENTATION_STYLE_ASSIGNMENT((#92));
#39=PRESENTATION_STYLE_ASSIGNMENT((#93));
#40=ADVANCED_FACE('240[2]',(#94,#95,#96),#97,.T.);
#41=PRESENTATION_STYLE_ASSIGNMENT((#98));
#42=PRESENTATION_STYLE_ASSIGNMENT((#99));
#43=ADVANCED_FACE('240[2]',(#100),#101,.T.);
#44=PRESENTATION_STYLE_ASSIGNMENT((#102));
#45=EDGE_CURVE('240[2]',#103,#103,#104,.T.);
#46=PRESENTATION_STYLE_ASSIGNMENT((#105));
#47=EDGE_CURVE('240[2]',#106,#106,#107,.T.);
#48=PRESENTATION_STYLE_ASSIGNMENT((#108));
#49=PRESENTATION_STYLE_ASSIGNMENT((#109));
#50=ADVANCED_FACE('240[2]',(#110,#111),#112,.F.);
#51=PRESENTATION_STYLE_ASSIGNMENT((#113));
#52=PRESENTATION_STYLE_ASSIGNMENT((#114));
#53=ADVANCED_FACE('240[2]',(#115,#116),#117,.F.);
#54=PRESENTATION_STYLE_ASSIGNMENT((#118));
#55=EDGE_CURVE('240[2]',#119,#120,#121,.T.);
#56=PRESENTATION_STYLE_ASSIGNMENT((#122));
#57=EDGE_CURVE('240[2]',#123,#123,#124,.T.);
#58=PRESENTATION_STYLE_ASSIGNMENT((#125));
#59=PRESENTATION_STYLE_ASSIGNMENT((#126));
#60=MANIFOLD_SOLID_BREP('240[2]',#127);
#61=PRESENTATION_STYLE_ASSIGNMENT((#128));
#62=PRESENTATION_STYLE_ASSIGNMENT((#129));
#63=ADVANCED_FACE('240[2]',(#130),#131,.T.);
#64=PRESENTATION_STYLE_ASSIGNMENT((#132));
#65=EDGE_CURVE('240[2]',#120,#119,#133,.T.);
#66=PRESENTATION_STYLE_ASSIGNMENT((#134));
#67=EDGE_CURVE('240[2]',#135,#135,#136,.T.);
#68=PRESENTATION_STYLE_ASSIGNMENT((#137));
#69=EDGE_CURVE('240[2]',#138,#138,#139,.T.);
#70=PRESENTATION_STYLE_ASSIGNMENT((#140));
#71=PRESENTATION_STYLE_ASSIGNMENT((#141));
#72=ADVANCED_FACE('240[2]',(#142),#143,.F.);
#73=PRESENTATION_STYLE_ASSIGNMENT((#144));
#74=PRESENTATION_STYLE_ASSIGNMENT((#145));
#75=ADVANCED_FACE('240[2]',(#146,#147),#148,.T.);
#76=PRODUCT('240[2]','240[2]','PART-240[2]-DESC',(#149));
#77=PRODUCT_DEFINITION('NONE','NONE',#150,#2);
#78=AXIS2_PLACEMENT_3D('',#151,#152,#153);
#81=LENGTH_MEASURE_WITH_UNIT(LENGTH_MEASURE(1.0),#154);
#84=DIMENSIONAL_EXPONENTS(1.0,0.0,0.0,0.0,0.0,0.0,0.0);
#86=DIMENSIONAL_EXPONENTS(0.0,0.0,0.0,0.0,0.0,0.0,0.0);
#92=SURFACE_STYLE_USAGE(.BOTH.,#155);
#93=CURVE_STYLE('',#156,POSITIVE_LENGTH_MEASURE(1000.0),#157);
#94=FACE_BOUND('',#158,.T.);
#95=FACE_BOUND('',#159,.T.);
#96=FACE_BOUND('',#160,.T.);
#97=CYLINDRICAL_SURFACE('',#161,9.5);
#98=SURFACE_STYLE_USAGE(.BOTH.,#162);
#99=CURVE_STYLE('',#163,POSITIVE_LENGTH_MEASURE(1000.0),#164);
#100=FACE_OUTER_BOUND('',#165,.T.);
#101=PLANE('',#166);
#102=CURVE_STYLE('',#167,POSITIVE_LENGTH_MEASURE(1000.0),#168);
#103=VERTEX_POINT('',#169);
#104=CIRCLE('',#170,5.5);
#105=CURVE_STYLE('',#171,POSITIVE_LENGTH_MEASURE(1000.0),#172);
#106=VERTEX_POINT('',#173);
#107=CIRCLE('',#174,9.5);
#108=SURFACE_STYLE_USAGE(.BOTH.,#175);
#109=CURVE_STYLE('',#176,POSITIVE_LENGTH_MEASURE(1000.0),#177);
#110=FACE_BOUND('',#178,.T.);
#111=FACE_BOUND('',#179,.T.);
#112=CYLINDRICAL_SURFACE('',#180,2.1);
#113=SURFACE_STYLE_USAGE(.BOTH.,#181);
#114=CURVE_STYLE('',#182,POSITIVE_LENGTH_MEASURE(1000.0),#183);
#115=FACE_BOUND('',#184,.T.);
#116=FACE_BOUND('',#185,.T.);
#117=CYLINDRICAL_SURFACE('',#186,5.5);
#118=CURVE_STYLE('',#187,POSITIVE_LENGTH_MEASURE(1000.0),#188);
#119=VERTEX_POINT('',#189);
#120=VERTEX_POINT('',#190);
#121=B_SPLINE_CURVE_WITH_KNOTS('',3,(#191,#192,#193,#194,#195,#196,#197,#198,#199,#200,#201,#202,#203,#204,#205,#206,#207,#208,#209,#210,#211,#212,#213,#214,#215,#216,#217,#218,#219,#220,#221,#222,#223,#224,#225,#226,#227,#228,#229,#230,#231,#232,#233,#234,#235,#236,#237,#238,#239,#240,#241,#242,#243,#244,#245,#246,#247,#248,#249,#250,#251,#252,#253,#254,#255,#256),.UNSPECIFIED.,.T.,.F.,(4,2,2,2,2,2,2,2,2,2,2,2,2,2,2,2,2,2,2,2,2,2,2,2,2,2,2,2,2,2,2,2,4),(0.0,0.39695237257999,0.79390474515998,1.19085711773997,1.58780949031996,1.9847283842422,2.38164727816444,2.77856617208668,3.17548506600891,3.57240395993115,3.96932285385339,4.36624174777563,4.76316064169787,5.16011301427786,5.55706538685785,5.95401775943784,6.35097013201783,6.74792250459782,7.14487487717781,7.5418272497578,7.93877962233779,8.33569851626003,8.73261741018227,9.12953630410451,9.52645519802674,9.92337409194898,10.3202929858712,10.7172118797935,11.1141307737157,11.5110831462957,11.9080355188757,12.3049878914557,12.7019402640357),.UNSPECIFIED.);
#122=CURVE_STYLE('',#257,POSITIVE_LENGTH_MEASURE(1000.0),#258);
#123=VERTEX_POINT('',#259);
#124=CIRCLE('',#260,9.5);
#125=SURFACE_STYLE_USAGE(.BOTH.,#261);
#126=CURVE_STYLE('',#262,POSITIVE_LENGTH_MEASURE(1000.0),#263);
#127=CLOSED_SHELL('',(#50,#63,#53,#72,#43,#40,#75));
#128=SURFACE_STYLE_USAGE(.BOTH.,#264);
#129=CURVE_STYLE('',#265,POSITIVE_LENGTH_MEASURE(1000.0),#266);
#130=FACE_OUTER_BOUND('',#267,.T.);
#131=PLANE('',#268);
#132=CURVE_STYLE('',#269,POSITIVE_LENGTH_MEASURE(1000.0),#270);
#133=B_SPLINE_CURVE_WITH_KNOTS('',3,(#271,#272,#273,#274,#275,#276,#277,#278,#279,#280,#281,#282,#283,#284,#285,#286,#287,#288,#289,#290,#291,#292,#293,#294,#295,#296,#297,#298,#299,#300,#301,#302,#303,#304,#305,#306,#307,#308,#309,#310,#311,#312,#313,#314,#315,#316,#317,#318,#319,#320,#321,#322,#323,#324,#325,#326,#327,#328,#329,#330,#331,#332,#333,#334,#335,#336),.UNSPECIFIED.,.T.,.F.,(4,2,2,2,2,2,2,2,2,2,2,2,2,2,2,2,2,2,2,2,2,2,2,2,2,2,2,2,2,2,2,2,4),(0.0,0.39695237257999,0.79390474515998,1.19085711773997,1.58780949031996,1.9847283842422,2.38164727816444,2.77856617208668,3.17548506600891,3.57240395993115,3.96932285385339,4.36624174777563,4.76316064169787,5.16011301427786,5.55706538685785,5.95401775943784,6.35097013201783,6.74792250459782,7.14487487717781,7.5418272497578,7.93877962233779,8.33569851626003,8.73261741018227,9.12953630410451,9.52645519802674,9.92337409194898,10.3202929858712,10.7172118797935,11.1141307737157,11.5110831462957,11.9080355188757,12.3049878914557,12.7019402640357),.UNSPECIFIED.);
#134=CURVE_STYLE('',#337,POSITIVE_LENGTH_MEASURE(1000.0),#338);
#135=VERTEX_POINT('',#339);
#136=CIRCLE('',#340,5.5);
#137=CURVE_STYLE('',#341,POSITIVE_LENGTH_MEASURE(1000.0),#342);
#138=VERTEX_POINT('',#343);
#139=CIRCLE('',#344,2.1);
#140=SURFACE_STYLE_USAGE(.BOTH.,#345);
#141=CURVE_STYLE('',#346,POSITIVE_LENGTH_MEASURE(1000.0),#347);
#142=FACE_OUTER_BOUND('',#348,.T.);
#143=PLANE('',#349);
#144=SURFACE_STYLE_USAGE(.BOTH.,#350);
#145=CURVE_STYLE('',#351,POSITIVE_LENGTH_MEASURE(1000.0),#352);
#146=FACE_BOUND('',#353,.T.);
#147=FACE_OUTER_BOUND('',#354,.T.);
#148=PLANE('',#355);
#149=PRODUCT_CONTEXT('',#25,'mechanical');
#150=PRODUCT_DEFINITION_FORMATION_WITH_SPECIFIED_SOURCE(' ','NONE',#76,.NOT_KNOWN.);
#151=CARTESIAN_POINT('',(0.0,0.0,0.0));
#152=DIRECTION('',(0.0,0.0,1.0));
#153=DIRECTION('',(1.0,0.0,0.0));
#154= (NAMED_UNIT(#84)LENGTH_UNIT()SI_UNIT(.MILLI.,.METRE.));
#155=SURFACE_SIDE_STYLE('',(#357));
#156=DRAUGHTING_PRE_DEFINED_CURVE_FONT('continuous');
#157=COLOUR_RGB('',0.501960813999176,0.501960813999176,0.501960813999176);
#158=EDGE_LOOP('',(#358,#359));
#159=EDGE_LOOP('',(#360));
#160=EDGE_LOOP('',(#361));
#161=AXIS2_PLACEMENT_3D('',#362,#363,#364);
#162=SURFACE_SIDE_STYLE('',(#365));
#163=DRAUGHTING_PRE_DEFINED_CURVE_FONT('continuous');
#164=COLOUR_RGB('',0.501960813999176,0.501960813999176,0.501960813999176);
#165=EDGE_LOOP('',(#366));
#166=AXIS2_PLACEMENT_3D('',#367,#368,#369);
#167=DRAUGHTING_PRE_DEFINED_CURVE_FONT('continuous');
#168=COLOUR_RGB('',0.501960813999176,0.501960813999176,0.501960813999176);
#169=CARTESIAN_POINT('',(5.5,0.0,14.0));
#170=AXIS2_PLACEMENT_3D('',#370,#371,#372);
#171=DRAUGHTING_PRE_DEFINED_CURVE_FONT('continuous');
#172=COLOUR_RGB('',0.501960813999176,0.501960813999176,0.501960813999176);
#173=CARTESIAN_POINT('',(-1.17096540618744E-031,9.5,1.16341445918999E-015));
#174=AXIS2_PLACEMENT_3D('',#373,#374,#375);
#175=SURFACE_SIDE_STYLE('',(#376));
#176=DRAUGHTING_PRE_DEFINED_CURVE_FONT('continuous');
#177=COLOUR_RGB('',0.501960813999176,0.501960813999176,0.501960813999176);
#178=EDGE_LOOP('',(#377,#378));
#179=EDGE_LOOP('',(#379));
#180=AXIS2_PLACEMENT_3D('',#380,#381,#382);
#181=SURFACE_SIDE_STYLE('',(#383));
#182=DRAUGHTING_PRE_DEFINED_CURVE_FONT('continuous');
#183=COLOUR_RGB('',0.501960813999176,0.501960813999176,0.501960813999176);
#184=EDGE_LOOP('',(#384));
#185=EDGE_LOOP('',(#385));
#186=AXIS2_PLACEMENT_3D('',#386,#387,#388);
#187=DRAUGHTING_PRE_DEFINED_CURVE_FONT('continuous');
#188=COLOUR_RGB('',0.501960813999176,0.501960813999176,0.501960813999176);
#189=CARTESIAN_POINT('',(-4.79449221866189E-015,9.5,2.9));
#190=CARTESIAN_POINT('',(-4.28014056302E-015,9.5,7.1));
#191=CARTESIAN_POINT('',(2.1,9.26498785752037,5.0));
#192=CARTESIAN_POINT('',(2.1,9.26498785752037,5.13231745752666));
#193=CARTESIAN_POINT('',(2.08729276693529,9.26789921901988,5.26900863845982));
#194=CARTESIAN_POINT('',(2.03393053016163,9.27975611893228,5.54063235325536));
#195=CARTESIAN_POINT('',(1.99328855236909,9.28869225107125,5.67556785649964));
#196=CARTESIAN_POINT('',(1.88599937129834,9.31106917764845,5.93412938375652));
#197=CARTESIAN_POINT('',(1.81926688429353,9.3245057039821,6.05796970411625));
#198=CARTESIAN_POINT('',(1.66522589677435,9.35324335897209,6.28687785141605));
#199=CARTESIAN_POINT('',(1.57790646116224,9.36851500591358,6.39194201982126));
#200=CARTESIAN_POINT('',(1.39194986187022,9.39794319537222,6.57789861911328));
#201=CARTESIAN_POINT('',(1.28688934092167,9.41314073160093,6.66521717711817));
#202=CARTESIAN_POINT('',(1.05797891274082,9.44160914403958,6.81926167530234));
#203=CARTESIAN_POINT('',(0.93413266907005,9.45485229980436,6.8859981810075));
#204=CARTESIAN_POINT('',(0.675559563917766,9.4768378232422,6.99329182040496));
#205=CARTESIAN_POINT('',(0.540618581817237,9.48557906319787,7.03393422932773));
#206=CARTESIAN_POINT('',(0.268993374094956,9.49716384926986,7.08729477193439));
#207=CARTESIAN_POINT('',(0.132306297974075,9.5,7.09999999999999));
#208=CARTESIAN_POINT('',(-0.132306297974084,9.5,7.09999999999999));
#209=CARTESIAN_POINT('',(-0.268993374094965,9.49716384926986,7.08729477193439));
#210=CARTESIAN_POINT('',(-0.540618581817246,9.48557906319787,7.03393422932773));
#211=CARTESIAN_POINT('',(-0.675559563917775,9.4768378232422,6.99329182040496));
#212=CARTESIAN_POINT('',(-0.934132669070058,9.45485229980436,6.88599818100749));
#213=CARTESIAN_POINT('',(-1.05797891274083,9.44160914403958,6.81926167530234));
#214=CARTESIAN_POINT('',(-1.28688934092168,9.41314073160093,6.66521717711817));
#215=CARTESIAN_POINT('',(-1.39194986187023,9.39794319537222,6.57789861911328));
#216=CARTESIAN_POINT('',(-1.57790646116225,9.36851500591358,6.39194201982126));
#217=CARTESIAN_POINT('',(-1.66522589677436,9.35324335897208,6.28687785141605));
#218=CARTESIAN_POINT('',(-1.81926688429354,9.32450570398209,6.05796970411625));
#219=CARTESIAN_POINT('',(-1.88599937129835,9.31106917764846,5.93412938375651));
#220=CARTESIAN_POINT('',(-1.9932885523691,9.28869225107125,5.67556785649964));
#221=CARTESIAN_POINT('',(-2.03393053016164,9.27975611893228,5.54063235325536));
#222=CARTESIAN_POINT('',(-2.08729276693529,9.26789921901988,5.26900863845982));
#223=CARTESIAN_POINT('',(-2.10000000000001,9.26498785752037,5.13231745752666));
#224=CARTESIAN_POINT('',(-2.10000000000001,9.26498785752037,4.86768254247334));
#225=CARTESIAN_POINT('',(-2.0872927669353,9.26789921901988,4.73099136154018));
#226=CARTESIAN_POINT('',(-2.03393053016164,9.27975611893228,4.45936764674464));
#227=CARTESIAN_POINT('',(-1.9932885523691,9.28869225107125,4.32443214350036));
#228=CARTESIAN_POINT('',(-1.88599937129835,9.31106917764845,4.06587061624349));
#229=CARTESIAN_POINT('',(-1.81926688429354,9.32450570398209,3.94203029588376));
#230=CARTESIAN_POINT('',(-1.66522589677436,9.35324335897208,3.71312214858395));
#231=CARTESIAN_POINT('',(-1.57790646116225,9.36851500591358,3.60805798017874));
#232=CARTESIAN_POINT('',(-1.39194986187023,9.39794319537222,3.42210138088672));
#233=CARTESIAN_POINT('',(-1.28688934092168,9.41314073160093,3.33478282288183));
#234=CARTESIAN_POINT('',(-1.05797891274083,9.44160914403958,3.18073832469766));
#235=CARTESIAN_POINT('',(-0.934132669070058,9.45485229980436,3.1140018189925));
#236=CARTESIAN_POINT('',(-0.675559563917775,9.4768378232422,3.00670817959504));
#237=CARTESIAN_POINT('',(-0.540618581817246,9.48557906319787,2.96606577067227));
#238=CARTESIAN_POINT('',(-0.268993374094966,9.49716384926986,2.91270522806561));
#239=CARTESIAN_POINT('',(-0.132306297974084,9.5,2.90000000000001));
#240=CARTESIAN_POINT('',(0.132306297974075,9.5,2.90000000000001));
#241=CARTESIAN_POINT('',(0.268993374094956,9.49716384926986,2.91270522806561));
#242=CARTESIAN_POINT('',(0.540618581817237,9.48557906319787,2.96606577067227));
#243=CARTESIAN_POINT('',(0.675559563917766,9.4768378232422,3.00670817959504));
#244=CARTESIAN_POINT('',(0.934132669070049,9.45485229980436,3.1140018189925));
#245=CARTESIAN_POINT('',(1.05797891274082,9.44160914403958,3.18073832469766));
#246=CARTESIAN_POINT('',(1.28688934092167,9.41314073160093,3.33478282288183));
#247=CARTESIAN_POINT('',(1.39194986187022,9.39794319537222,3.42210138088672));
#248=CARTESIAN_POINT('',(1.57790646116224,9.36851500591358,3.60805798017874));
#249=CARTESIAN_POINT('',(1.66522589677435,9.35324335897209,3.71312214858395));
#250=CARTESIAN_POINT('',(1.81926688429353,9.3245057039821,3.94203029588375));
#251=CARTESIAN_POINT('',(1.88599937129834,9.31106917764845,4.06587061624349));
#252=CARTESIAN_POINT('',(1.99328855236909,9.28869225107125,4.32443214350036));
#253=CARTESIAN_POINT('',(2.03393053016163,9.27975611893228,4.45936764674464));
#254=CARTESIAN_POINT('',(2.08729276693529,9.26789921901988,4.73099136154018));
#255=CARTESIAN_POINT('',(2.1,9.26498785752037,4.86768254247334));
#256=CARTESIAN_POINT('',(2.1,9.26498785752037,5.0));
#257=DRAUGHTING_PRE_DEFINED_CURVE_FONT('continuous');
#258=COLOUR_RGB('',0.501960813999176,0.501960813999176,0.501960813999176);
#259=CARTESIAN_POINT('',(-1.16341445918999E-014,9.49999999999998,190.0));
#260=AXIS2_PLACEMENT_3D('',#389,#390,#391);
#261=SURFACE_SIDE_STYLE('',(#392));
#262=DRAUGHTING_PRE_DEFINED_CURVE_FONT('continuous');
#263=COLOUR_RGB('',0.501960813999176,0.501960813999176,0.501960813999176);
#264=SURFACE_SIDE_STYLE('',(#393));
#265=DRAUGHTING_PRE_DEFINED_CURVE_FONT('continuous');
#266=COLOUR_RGB('',0.501960813999176,0.501960813999176,0.501960813999176);
#267=EDGE_LOOP('',(#394));
#268=AXIS2_PLACEMENT_3D('',#395,#396,#397);
#269=DRAUGHTING_PRE_DEFINED_CURVE_FONT('continuous');
#270=COLOUR_RGB('',0.501960813999176,0.501960813999176,0.501960813999176);
#271=CARTESIAN_POINT('',(2.1,9.26498785752037,5.0));
#272=CARTESIAN_POINT('',(2.1,9.26498785752037,5.13231745752666));
#273=CARTESIAN_POINT('',(2.08729276693529,9.26789921901988,5.26900863845982));
#274=CARTESIAN_POINT('',(2.03393053016163,9.27975611893228,5.54063235325536));
#275=CARTESIAN_POINT('',(1.99328855236909,9.28869225107125,5.67556785649964));
#276=CARTESIAN_POINT('',(1.88599937129834,9.31106917764845,5.93412938375652));
#277=CARTESIAN_POINT('',(1.81926688429353,9.3245057039821,6.05796970411625));
#278=CARTESIAN_POINT('',(1.66522589677435,9.35324335897209,6.28687785141605));
#279=CARTESIAN_POINT('',(1.57790646116224,9.36851500591358,6.39194201982126));
#280=CARTESIAN_POINT('',(1.39194986187022,9.39794319537222,6.57789861911328));
#281=CARTESIAN_POINT('',(1.28688934092167,9.41314073160093,6.66521717711817));
#282=CARTESIAN_POINT('',(1.05797891274082,9.44160914403958,6.81926167530234));
#283=CARTESIAN_POINT('',(0.93413266907005,9.45485229980436,6.8859981810075));
#284=CARTESIAN_POINT('',(0.675559563917766,9.4768378232422,6.99329182040496));
#285=CARTESIAN_POINT('',(0.540618581817237,9.48557906319787,7.03393422932773));
#286=CARTESIAN_POINT('',(0.268993374094956,9.49716384926986,7.08729477193439));
#287=CARTESIAN_POINT('',(0.132306297974075,9.5,7.09999999999999));
#288=CARTESIAN_POINT('',(-0.132306297974084,9.5,7.09999999999999));
#289=CARTESIAN_POINT('',(-0.268993374094965,9.49716384926986,7.08729477193439));
#290=CARTESIAN_POINT('',(-0.540618581817246,9.48557906319787,7.03393422932773));
#291=CARTESIAN_POINT('',(-0.675559563917775,9.4768378232422,6.99329182040496));
#292=CARTESIAN_POINT('',(-0.934132669070058,9.45485229980436,6.88599818100749));
#293=CARTESIAN_POINT('',(-1.05797891274083,9.44160914403958,6.81926167530234));
#294=CARTESIAN_POINT('',(-1.28688934092168,9.41314073160093,6.66521717711817));
#295=CARTESIAN_POINT('',(-1.39194986187023,9.39794319537222,6.57789861911328));
#296=CARTESIAN_POINT('',(-1.57790646116225,9.36851500591358,6.39194201982126));
#297=CARTESIAN_POINT('',(-1.66522589677436,9.35324335897208,6.28687785141605));
#298=CARTESIAN_POINT('',(-1.81926688429354,9.32450570398209,6.05796970411625));
#299=CARTESIAN_POINT('',(-1.88599937129835,9.31106917764846,5.93412938375651));
#300=CARTESIAN_POINT('',(-1.9932885523691,9.28869225107125,5.67556785649964));
#301=CARTESIAN_POINT('',(-2.03393053016164,9.27975611893228,5.54063235325536));
#302=CARTESIAN_POINT('',(-2.08729276693529,9.26789921901988,5.26900863845982));
#303=CARTESIAN_POINT('',(-2.10000000000001,9.26498785752037,5.13231745752666));
#304=CARTESIAN_POINT('',(-2.10000000000001,9.26498785752037,4.86768254247334));
#305=CARTESIAN_POINT('',(-2.0872927669353,9.26789921901988,4.73099136154018));
#306=CARTESIAN_POINT('',(-2.03393053016164,9.27975611893228,4.45936764674464));
#307=CARTESIAN_POINT('',(-1.9932885523691,9.28869225107125,4.32443214350036));
#308=CARTESIAN_POINT('',(-1.88599937129835,9.31106917764845,4.06587061624349));
#309=CARTESIAN_POINT('',(-1.81926688429354,9.32450570398209,3.94203029588376));
#310=CARTESIAN_POINT('',(-1.66522589677436,9.35324335897208,3.71312214858395));
#311=CARTESIAN_POINT('',(-1.57790646116225,9.36851500591358,3.60805798017874));
#312=CARTESIAN_POINT('',(-1.39194986187023,9.39794319537222,3.42210138088672));
#313=CARTESIAN_POINT('',(-1.28688934092168,9.41314073160093,3.33478282288183));
#314=CARTESIAN_POINT('',(-1.05797891274083,9.44160914403958,3.18073832469766));
#315=CARTESIAN_POINT('',(-0.934132669070058,9.45485229980436,3.1140018189925));
#316=CARTESIAN_POINT('',(-0.675559563917775,9.4768378232422,3.00670817959504));
#317=CARTESIAN_POINT('',(-0.540618581817246,9.48557906319787,2.96606577067227));
#318=CARTESIAN_POINT('',(-0.268993374094966,9.49716384926986,2.91270522806561));
#319=CARTESIAN_POINT('',(-0.132306297974084,9.5,2.90000000000001));
#320=CARTESIAN_POINT('',(0.132306297974075,9.5,2.90000000000001));
#321=CARTESIAN_POINT('',(0.268993374094956,9.49716384926986,2.91270522806561));
#322=CARTESIAN_POINT('',(0.540618581817237,9.48557906319787,2.96606577067227));
#323=CARTESIAN_POINT('',(0.675559563917766,9.4768378232422,3.00670817959504));
#324=CARTESIAN_POINT('',(0.934132669070049,9.45485229980436,3.1140018189925));
#325=CARTESIAN_POINT('',(1.05797891274082,9.44160914403958,3.18073832469766));
#326=CARTESIAN_POINT('',(1.28688934092167,9.41314073160093,3.33478282288183));
#327=CARTESIAN_POINT('',(1.39194986187022,9.39794319537222,3.42210138088672));
#328=CARTESIAN_POINT('',(1.57790646116224,9.36851500591358,3.60805798017874));
#329=CARTESIAN_POINT('',(1.66522589677435,9.35324335897209,3.71312214858395));
#330=CARTESIAN_POINT('',(1.81926688429353,9.3245057039821,3.94203029588375));
#331=CARTESIAN_POINT('',(1.88599937129834,9.31106917764845,4.06587061624349));
#332=CARTESIAN_POINT('',(1.99328855236909,9.28869225107125,4.32443214350036));
#333=CARTESIAN_POINT('',(2.03393053016163,9.27975611893228,4.45936764674464));
#334=CARTESIAN_POINT('',(2.08729276693529,9.26789921901988,4.73099136154018));
#335=CARTESIAN_POINT('',(2.1,9.26498785752037,4.86768254247334));
#336=CARTESIAN_POINT('',(2.1,9.26498785752037,5.0));
#337=DRAUGHTING_PRE_DEFINED_CURVE_FONT('continuous');
#338=COLOUR_RGB('',0.501960813999176,0.501960813999176,0.501960813999176);
#339=CARTESIAN_POINT('',(5.5,0.0,0.0));
#340=AXIS2_PLACEMENT_3D('',#398,#399,#400);
#341=DRAUGHTING_PRE_DEFINED_CURVE_FONT('continuous');
#342=COLOUR_RGB('',0.501960813999176,0.501960813999176,0.501960813999176);
#343=CARTESIAN_POINT('',(2.1,9.2,5.0));
#344=AXIS2_PLACEMENT_3D('',#401,#402,#403);
#345=SURFACE_SIDE_STYLE('',(#404));
#346=DRAUGHTING_PRE_DEFINED_CURVE_FONT('continuous');
#347=COLOUR_RGB('',0.501960813999176,0.501960813999176,0.501960813999176);
#348=EDGE_LOOP('',(#405));
#349=AXIS2_PLACEMENT_3D('',#406,#407,#408);
#350=SURFACE_SIDE_STYLE('',(#409));
#351=DRAUGHTING_PRE_DEFINED_CURVE_FONT('continuous');
#352=COLOUR_RGB('',0.501960813999176,0.501960813999176,0.501960813999176);
#353=EDGE_LOOP('',(#410));
#354=EDGE_LOOP('',(#411));
#355=AXIS2_PLACEMENT_3D('',#412,#413,#414);
#357=SURFACE_STYLE_FILL_AREA(#415);
#358=ORIENTED_EDGE('',*,*,#65,.T.);
#359=ORIENTED_EDGE('',*,*,#55,.T.);
#360=ORIENTED_EDGE('',*,*,#47,.F.);
#361=ORIENTED_EDGE('',*,*,#57,.T.);
#362=CARTESIAN_POINT('',(-5.81707229594993E-015,-1.16341445918999E-014,95.0));
#363=DIRECTION('',(-6.12323399573677E-017,-1.22464679914735E-016,1.0));
#364=DIRECTION('',(-1.23259516440783E-032,1.0,1.22464679914735E-016));
#365=SURFACE_STYLE_FILL_AREA(#416);
#366=ORIENTED_EDGE('',*,*,#57,.F.);
#367=CARTESIAN_POINT('',(-1.16341445918999E-014,4.74999999999998,190.0));
#368=DIRECTION('',(-9.18338008663382E-049,-1.22464679914735E-016,1.0));
#369=DIRECTION('',(1.0,-7.49879891330927E-033,0.0));
#370=CARTESIAN_POINT('',(0.0,0.0,14.0));
#371=DIRECTION('',(0.0,0.0,-1.0));
#372=DIRECTION('',(1.0,0.0,0.0));
#373=CARTESIAN_POINT('',(0.0,0.0,0.0));
#374=DIRECTION('',(6.12323399573677E-017,1.22464679914735E-016,-1.0));
#375=DIRECTION('',(-1.23259516440783E-032,1.0,1.22464679914735E-016));
#376=SURFACE_STYLE_FILL_AREA(#417);
#377=ORIENTED_EDGE('',*,*,#65,.F.);
#378=ORIENTED_EDGE('',*,*,#55,.F.);
#379=ORIENTED_EDGE('',*,*,#69,.F.);
#380=CARTESIAN_POINT('',(-4.40872847693047E-015,9.5,5.0));
#381=DIRECTION('',(0.0,-1.0,0.0));
#382=DIRECTION('',(1.0,0.0,0.0));
#383=SURFACE_STYLE_FILL_AREA(#418);
#384=ORIENTED_EDGE('',*,*,#45,.F.);
#385=ORIENTED_EDGE('',*,*,#67,.F.);
#386=CARTESIAN_POINT('',(0.0,0.0,0.0));
#387=DIRECTION('',(0.0,0.0,-1.0));
#388=DIRECTION('',(1.0,0.0,0.0));
#389=CARTESIAN_POINT('',(-1.16341445918999E-014,-2.32682891837997E-014,190.0));
#390=DIRECTION('',(6.12323399573677E-017,1.22464679914735E-016,-1.0));
#391=DIRECTION('',(-1.23259516440783E-032,1.0,1.22464679914735E-016));
#392=SURFACE_STYLE_FILL_AREA(#419);
#393=SURFACE_STYLE_FILL_AREA(#420);
#394=ORIENTED_EDGE('',*,*,#69,.T.);
#395=CARTESIAN_POINT('',(0.37200348681779,9.2,2.9332118139985));
#396=DIRECTION('',(-0.0,1.0,0.0));
#397=DIRECTION('',(1.0,0.0,0.0));
#398=CARTESIAN_POINT('',(0.0,0.0,5.81707229594993E-016));
#399=DIRECTION('',(-6.12323399573677E-017,-1.22464679914735E-016,1.0));
#400=DIRECTION('',(1.0,-7.49879891330927E-033,6.12323399573677E-017));
#401=CARTESIAN_POINT('',(-4.40872847693047E-015,9.2,5.0));
#402=DIRECTION('',(-0.0,1.0,0.0));
#403=DIRECTION('',(1.0,0.0,0.0));
#404=SURFACE_STYLE_FILL_AREA(#421);
#405=ORIENTED_EDGE('',*,*,#45,.T.);
#406=CARTESIAN_POINT('',(0.974294846427556,5.413016677623,14.0));
#407=DIRECTION('',(0.0,0.0,1.0));
#408=DIRECTION('',(1.0,0.0,0.0));
#409=SURFACE_STYLE_FILL_AREA(#422);
#410=ORIENTED_EDGE('',*,*,#67,.T.);
#411=ORIENTED_EDGE('',*,*,#47,.T.);
#412=CARTESIAN_POINT('',(-5.8548270309372E-032,4.75,5.81707229594993E-016));
#413=DIRECTION('',(6.12323399573677E-017,1.22464679914735E-016,-1.0));
#414=DIRECTION('',(-1.0,0.0,-6.12323399573677E-017));
#415=FILL_AREA_STYLE('',(#423));
#416=FILL_AREA_STYLE('',(#424));
#417=FILL_AREA_STYLE('',(#425));
#418=FILL_AREA_STYLE('',(#426));
#419=FILL_AREA_STYLE('',(#427));
#420=FILL_AREA_STYLE('',(#428));
#421=FILL_AREA_STYLE('',(#429));
#422=FILL_AREA_STYLE('',(#430));
#423=FILL_AREA_STYLE_COLOUR('',#431);
#424=FILL_AREA_STYLE_COLOUR('',#432);
#425=FILL_AREA_STYLE_COLOUR('',#433);
#426=FILL_AREA_STYLE_COLOUR('',#434);
#427=FILL_AREA_STYLE_COLOUR('',#435);
#428=FILL_AREA_STYLE_COLOUR('',#436);
#429=FILL_AREA_STYLE_COLOUR('',#437);
#430=FILL_AREA_STYLE_COLOUR('',#438);
#431=COLOUR_RGB('',0.501960813999176,0.501960813999176,0.501960813999176);
#432=COLOUR_RGB('',0.501960813999176,0.501960813999176,0.501960813999176);
#433=COLOUR_RGB('',0.501960813999176,0.501960813999176,0.501960813999176);
#434=COLOUR_RGB('',0.501960813999176,0.501960813999176,0.501960813999176);
#435=COLOUR_RGB('',0.501960813999176,0.501960813999176,0.501960813999176);
#436=COLOUR_RGB('',0.501960813999176,0.501960813999176,0.501960813999176);
#437=COLOUR_RGB('',0.501960813999176,0.501960813999176,0.501960813999176);
#438=COLOUR_RGB('',0.501960813999176,0.501960813999176,0.501960813999176);
ENDSEC;
END-ISO-10303-21;
