ISO-10303-21;
HEADER;
FILE_DESCRIPTION((''),'1');
FILE_NAME('T:/00_BIG-HP\X2\FF71FF6FFF8CFF9F\X0\/2022_\X2\30C030A630F330ED30FC30C930C730FC30BF\X0\/02_STEP\X2\FF83FF9EFF70FF80\X0\/LINK\X2\7528FF83FF9EFF70FF80FF8EFF99FF80FF9E\X0\/CK\X2\FF8DFF6FFF84FF9E30FBFF71FF78FF7EFF7BFF98\X0\/11_CK\X2\8D85786CFF7DFF84FF9AFF70FF84FF7CFF6CFF9DFF78\X0\/01_CK\X2\8D85786CFF7DFF84FF9AFF70FF84FF7CFF6CFF9DFF78\X0\/\X2\5EA76A19\X0\_\X2\5C5E6027590966F4\X0\/ST19W-CKB1-140.stp','2022-09-28T05:53:30',(''),(''),'Spatial Interop R21 SP3','Kubotek KeyCreator 2011 V10.0.2 (22737)',' ');
FILE_SCHEMA(('automotive_design'));
ENDSEC;
DATA;
#1=MECHANICAL_DESIGN_GEOMETRIC_PRESENTATION_REPRESENTATION(' ',(#10,#11,#12,#13,#14,#15,#16,#17,#18,#19,#20,#21,#22,#23,#24),#6);
#2=PRODUCT_DEFINITION_CONTEXT('',#25,'design');
#3=APPLICATION_PROTOCOL_DEFINITION('INTERNATIONAL STANDARD','automotive_design',1994,#25);
#4=PRODUCT_CATEGORY_RELATIONSHIP('NONE','NONE',#26,#27);
#5=SHAPE_DEFINITION_REPRESENTATION(#28,#29);
#6= (GEOMETRIC_REPRESENTATION_CONTEXT(3)GLOBAL_UNCERTAINTY_ASSIGNED_CONTEXT((#32))GLOBAL_UNIT_ASSIGNED_CONTEXT((#34,#35,#36))REPRESENTATION_CONTEXT('NONE','WORKSPACE'));
#10=STYLED_ITEM('',(#38),#39);
#11=STYLED_ITEM('',(#40,#41),#42);
#12=STYLED_ITEM('',(#43),#44);
#13=STYLED_ITEM('',(#45),#46);
#14=STYLED_ITEM('',(#47),#48);
#15=STYLED_ITEM('',(#49,#50),#51);
#16=STYLED_ITEM('',(#52,#53),#54);
#17=STYLED_ITEM('',(#55,#56),#57);
#18=STYLED_ITEM('',(#58),#59);
#19=STYLED_ITEM('',(#60,#61),#62);
#20=STYLED_ITEM('',(#63,#64),#65);
#21=STYLED_ITEM('',(#66,#67),#68);
#22=STYLED_ITEM('',(#69,#70),#71);
#23=STYLED_ITEM('',(#72),#73);
#24=STYLED_ITEM('',(#74),#75);
#25=APPLICATION_CONTEXT(' ');
#26=PRODUCT_CATEGORY('part','NONE');
#27=PRODUCT_RELATED_PRODUCT_CATEGORY('detail',' ',(#76));
#28=PRODUCT_DEFINITION_SHAPE('NONE','NONE',#77);
#29=ADVANCED_BREP_SHAPE_REPRESENTATION('240[2]',(#54,#78),#6);
#32=UNCERTAINTY_MEASURE_WITH_UNIT(LENGTH_MEASURE(1.0E-006),#34,'','');
#34= (CONVERSION_BASED_UNIT('MILLIMETRE',#81)LENGTH_UNIT()NAMED_UNIT(#84));
#35= (NAMED_UNIT(#86)PLANE_ANGLE_UNIT()SI_UNIT($,.RADIAN.));
#36= (NAMED_UNIT(#86)SOLID_ANGLE_UNIT()SI_UNIT($,.STERADIAN.));
#38=PRESENTATION_STYLE_ASSIGNMENT((#92));
#39=EDGE_CURVE('240[2]',#93,#93,#94,.T.);
#40=PRESENTATION_STYLE_ASSIGNMENT((#95));
#41=PRESENTATION_STYLE_ASSIGNMENT((#96));
#42=ADVANCED_FACE('240[2]',(#97,#98),#99,.F.);
#43=PRESENTATION_STYLE_ASSIGNMENT((#100));
#44=EDGE_CURVE('240[2]',#101,#101,#102,.T.);
#45=PRESENTATION_STYLE_ASSIGNMENT((#103));
#46=EDGE_CURVE('240[2]',#104,#104,#105,.T.);
#47=PRESENTATION_STYLE_ASSIGNMENT((#106));
#48=EDGE_CURVE('240[2]',#107,#107,#108,.T.);
#49=PRESENTATION_STYLE_ASSIGNMENT((#109));
#50=PRESENTATION_STYLE_ASSIGNMENT((#110));
#51=ADVANCED_FACE('240[2]',(#111,#112),#113,.F.);
#52=PRESENTATION_STYLE_ASSIGNMENT((#114));
#53=PRESENTATION_STYLE_ASSIGNMENT((#115));
#54=MANIFOLD_SOLID_BREP('240[2]',#116);
#55=PRESENTATION_STYLE_ASSIGNMENT((#117));
#56=PRESENTATION_STYLE_ASSIGNMENT((#118));
#57=ADVANCED_FACE('240[2]',(#119),#120,.F.);
#58=PRESENTATION_STYLE_ASSIGNMENT((#121));
#59=EDGE_CURVE('240[2]',#122,#123,#124,.T.);
#60=PRESENTATION_STYLE_ASSIGNMENT((#125));
#61=PRESENTATION_STYLE_ASSIGNMENT((#126));
#62=ADVANCED_FACE('240[2]',(#127,#128),#129,.T.);
#63=PRESENTATION_STYLE_ASSIGNMENT((#130));
#64=PRESENTATION_STYLE_ASSIGNMENT((#131));
#65=ADVANCED_FACE('240[2]',(#132,#133,#134),#135,.T.);
#66=PRESENTATION_STYLE_ASSIGNMENT((#136));
#67=PRESENTATION_STYLE_ASSIGNMENT((#137));
#68=ADVANCED_FACE('240[2]',(#138),#139,.T.);
#69=PRESENTATION_STYLE_ASSIGNMENT((#140));
#70=PRESENTATION_STYLE_ASSIGNMENT((#141));
#71=ADVANCED_FACE('240[2]',(#142),#143,.T.);
#72=PRESENTATION_STYLE_ASSIGNMENT((#144));
#73=EDGE_CURVE('240[2]',#123,#122,#145,.T.);
#74=PRESENTATION_STYLE_ASSIGNMENT((#146));
#75=EDGE_CURVE('240[2]',#147,#147,#148,.T.);
#76=PRODUCT('240[2]','240[2]','PART-240[2]-DESC',(#149));
#77=PRODUCT_DEFINITION('NONE','NONE',#150,#2);
#78=AXIS2_PLACEMENT_3D('',#151,#152,#153);
#81=LENGTH_MEASURE_WITH_UNIT(LENGTH_MEASURE(1.0),#154);
#84=DIMENSIONAL_EXPONENTS(1.0,0.0,0.0,0.0,0.0,0.0,0.0);
#86=DIMENSIONAL_EXPONENTS(0.0,0.0,0.0,0.0,0.0,0.0,0.0);
#92=CURVE_STYLE('',#155,POSITIVE_LENGTH_MEASURE(1000.0),#156);
#93=VERTEX_POINT('',#157);
#94=CIRCLE('',#158,5.5);
#95=SURFACE_STYLE_USAGE(.BOTH.,#159);
#96=CURVE_STYLE('',#160,POSITIVE_LENGTH_MEASURE(1000.0),#161);
#97=FACE_BOUND('',#162,.T.);
#98=FACE_BOUND('',#163,.T.);
#99=CYLINDRICAL_SURFACE('',#164,5.5);
#100=CURVE_STYLE('',#165,POSITIVE_LENGTH_MEASURE(1000.0),#166);
#101=VERTEX_POINT('',#167);
#102=CIRCLE('',#168,9.5);
#103=CURVE_STYLE('',#169,POSITIVE_LENGTH_MEASURE(1000.0),#170);
#104=VERTEX_POINT('',#171);
#105=CIRCLE('',#172,2.1);
#106=CURVE_STYLE('',#173,POSITIVE_LENGTH_MEASURE(1000.0),#174);
#107=VERTEX_POINT('',#175);
#108=CIRCLE('',#176,9.5);
#109=SURFACE_STYLE_USAGE(.BOTH.,#177);
#110=CURVE_STYLE('',#178,POSITIVE_LENGTH_MEASURE(1000.0),#179);
#111=FACE_BOUND('',#180,.T.);
#112=FACE_BOUND('',#181,.T.);
#113=CYLINDRICAL_SURFACE('',#182,2.1);
#114=SURFACE_STYLE_USAGE(.BOTH.,#183);
#115=CURVE_STYLE('',#184,POSITIVE_LENGTH_MEASURE(1000.0),#185);
#116=CLOSED_SHELL('',(#51,#68,#42,#57,#71,#65,#62));
#117=SURFACE_STYLE_USAGE(.BOTH.,#186);
#118=CURVE_STYLE('',#187,POSITIVE_LENGTH_MEASURE(1000.0),#188);
#119=FACE_OUTER_BOUND('',#189,.T.);
#120=PLANE('',#190);
#121=CURVE_STYLE('',#191,POSITIVE_LENGTH_MEASURE(1000.0),#192);
#122=VERTEX_POINT('',#193);
#123=VERTEX_POINT('',#194);
#124=B_SPLINE_CURVE_WITH_KNOTS('',3,(#195,#196,#197,#198,#199,#200,#201,#202,#203,#204,#205,#206,#207,#208,#209,#210,#211,#212,#213,#214,#215,#216,#217,#218,#219,#220,#221,#222,#223,#224,#225,#226,#227,#228,#229,#230,#231,#232,#233,#234,#235,#236,#237,#238,#239,#240,#241,#242,#243,#244,#245,#246,#247,#248,#249,#250,#251,#252,#253,#254,#255,#256,#257,#258,#259,#260),.UNSPECIFIED.,.T.,.F.,(4,2,2,2,2,2,2,2,2,2,2,2,2,2,2,2,2,2,2,2,2,2,2,2,2,2,2,2,2,2,2,2,4),(0.0,0.39695237257999,0.793904745159981,1.19085711773997,1.58780949031996,1.9847283842422,2.38164727816444,2.77856617208668,3.17548506600892,3.57240395993116,3.96932285385339,4.36624174777563,4.76316064169787,5.16011301427786,5.55706538685785,5.95401775943784,6.35097013201783,6.74792250459782,7.14487487717781,7.54182724975781,7.93877962233779,8.33569851626003,8.73261741018227,9.12953630410451,9.52645519802675,9.92337409194899,10.3202929858712,10.7172118797935,11.1141307737157,11.5110831462957,11.9080355188757,12.3049878914557,12.7019402640357),.UNSPECIFIED.);
#125=SURFACE_STYLE_USAGE(.BOTH.,#261);
#126=CURVE_STYLE('',#262,POSITIVE_LENGTH_MEASURE(1000.0),#263);
#127=FACE_BOUND('',#264,.T.);
#128=FACE_OUTER_BOUND('',#265,.T.);
#129=PLANE('',#266);
#130=SURFACE_STYLE_USAGE(.BOTH.,#267);
#131=CURVE_STYLE('',#268,POSITIVE_LENGTH_MEASURE(1000.0),#269);
#132=FACE_BOUND('',#270,.T.);
#133=FACE_BOUND('',#271,.T.);
#134=FACE_BOUND('',#272,.T.);
#135=CYLINDRICAL_SURFACE('',#273,9.5);
#136=SURFACE_STYLE_USAGE(.BOTH.,#274);
#137=CURVE_STYLE('',#275,POSITIVE_LENGTH_MEASURE(1000.0),#276);
#138=FACE_OUTER_BOUND('',#277,.T.);
#139=PLANE('',#278);
#140=SURFACE_STYLE_USAGE(.BOTH.,#279);
#141=CURVE_STYLE('',#280,POSITIVE_LENGTH_MEASURE(1000.0),#281);
#142=FACE_OUTER_BOUND('',#282,.T.);
#143=PLANE('',#283);
#144=CURVE_STYLE('',#284,POSITIVE_LENGTH_MEASURE(1000.0),#285);
#145=B_SPLINE_CURVE_WITH_KNOTS('',3,(#286,#287,#288,#289,#290,#291,#292,#293,#294,#295,#296,#297,#298,#299,#300,#301,#302,#303,#304,#305,#306,#307,#308,#309,#310,#311,#312,#313,#314,#315,#316,#317,#318,#319,#320,#321,#322,#323,#324,#325,#326,#327,#328,#329,#330,#331,#332,#333,#334,#335,#336,#337,#338,#339,#340,#341,#342,#343,#344,#345,#346,#347,#348,#349,#350,#351),.UNSPECIFIED.,.T.,.F.,(4,2,2,2,2,2,2,2,2,2,2,2,2,2,2,2,2,2,2,2,2,2,2,2,2,2,2,2,2,2,2,2,4),(0.0,0.39695237257999,0.793904745159981,1.19085711773997,1.58780949031996,1.9847283842422,2.38164727816444,2.77856617208668,3.17548506600892,3.57240395993116,3.96932285385339,4.36624174777563,4.76316064169787,5.16011301427786,5.55706538685785,5.95401775943784,6.35097013201783,6.74792250459782,7.14487487717781,7.54182724975781,7.93877962233779,8.33569851626003,8.73261741018227,9.12953630410451,9.52645519802675,9.92337409194899,10.3202929858712,10.7172118797935,11.1141307737157,11.5110831462957,11.9080355188757,12.3049878914557,12.7019402640357),.UNSPECIFIED.);
#146=CURVE_STYLE('',#352,POSITIVE_LENGTH_MEASURE(1000.0),#353);
#147=VERTEX_POINT('',#354);
#148=CIRCLE('',#355,5.5);
#149=PRODUCT_CONTEXT('',#25,'mechanical');
#150=PRODUCT_DEFINITION_FORMATION_WITH_SPECIFIED_SOURCE(' ','NONE',#76,.NOT_KNOWN.);
#151=CARTESIAN_POINT('',(0.0,0.0,0.0));
#152=DIRECTION('',(0.0,0.0,1.0));
#153=DIRECTION('',(1.0,0.0,0.0));
#154= (NAMED_UNIT(#84)LENGTH_UNIT()SI_UNIT(.MILLI.,.METRE.));
#155=DRAUGHTING_PRE_DEFINED_CURVE_FONT('continuous');
#156=COLOUR_RGB('',0.501960813999176,0.501960813999176,0.501960813999176);
#157=CARTESIAN_POINT('',(5.5,0.0,0.0));
#158=AXIS2_PLACEMENT_3D('',#357,#358,#359);
#159=SURFACE_SIDE_STYLE('',(#360));
#160=DRAUGHTING_PRE_DEFINED_CURVE_FONT('continuous');
#161=COLOUR_RGB('',0.501960813999176,0.501960813999176,0.501960813999176);
#162=EDGE_LOOP('',(#361));
#163=EDGE_LOOP('',(#362));
#164=AXIS2_PLACEMENT_3D('',#363,#364,#365);
#165=DRAUGHTING_PRE_DEFINED_CURVE_FONT('continuous');
#166=COLOUR_RGB('',0.501960813999176,0.501960813999176,0.501960813999176);
#167=CARTESIAN_POINT('',(-8.57252759403147E-015,9.49999999999998,140.0));
#168=AXIS2_PLACEMENT_3D('',#366,#367,#368);
#169=DRAUGHTING_PRE_DEFINED_CURVE_FONT('continuous');
#170=COLOUR_RGB('',0.501960813999176,0.501960813999176,0.501960813999176);
#171=CARTESIAN_POINT('',(2.1,9.2,5.0));
#172=AXIS2_PLACEMENT_3D('',#369,#370,#371);
#173=DRAUGHTING_PRE_DEFINED_CURVE_FONT('continuous');
#174=COLOUR_RGB('',0.501960813999176,0.501960813999176,0.501960813999176);
#175=CARTESIAN_POINT('',(-1.17096540618744E-031,9.5,1.16341445918999E-015));
#176=AXIS2_PLACEMENT_3D('',#372,#373,#374);
#177=SURFACE_SIDE_STYLE('',(#375));
#178=DRAUGHTING_PRE_DEFINED_CURVE_FONT('continuous');
#179=COLOUR_RGB('',0.501960813999176,0.501960813999176,0.501960813999176);
#180=EDGE_LOOP('',(#376,#377));
#181=EDGE_LOOP('',(#378));
#182=AXIS2_PLACEMENT_3D('',#379,#380,#381);
#183=SURFACE_SIDE_STYLE('',(#382));
#184=DRAUGHTING_PRE_DEFINED_CURVE_FONT('continuous');
#185=COLOUR_RGB('',0.501960813999176,0.501960813999176,0.501960813999176);
#186=SURFACE_SIDE_STYLE('',(#383));
#187=DRAUGHTING_PRE_DEFINED_CURVE_FONT('continuous');
#188=COLOUR_RGB('',0.501960813999176,0.501960813999176,0.501960813999176);
#189=EDGE_LOOP('',(#384));
#190=AXIS2_PLACEMENT_3D('',#385,#386,#387);
#191=DRAUGHTING_PRE_DEFINED_CURVE_FONT('continuous');
#192=COLOUR_RGB('',0.501960813999176,0.501960813999176,0.501960813999176);
#193=CARTESIAN_POINT('',(-4.28014056302E-015,9.5,7.1));
#194=CARTESIAN_POINT('',(-4.79449221866189E-015,9.5,2.9));
#195=CARTESIAN_POINT('',(2.1,9.26498785752037,5.0));
#196=CARTESIAN_POINT('',(2.1,9.26498785752037,5.13231745752666));
#197=CARTESIAN_POINT('',(2.08729276693529,9.26789921901988,5.26900863845982));
#198=CARTESIAN_POINT('',(2.03393053016163,9.27975611893228,5.54063235325536));
#199=CARTESIAN_POINT('',(1.99328855236909,9.28869225107125,5.67556785649964));
#200=CARTESIAN_POINT('',(1.88599937129834,9.31106917764845,5.93412938375652));
#201=CARTESIAN_POINT('',(1.81926688429353,9.3245057039821,6.05796970411624));
#202=CARTESIAN_POINT('',(1.66522589677435,9.35324335897209,6.28687785141605));
#203=CARTESIAN_POINT('',(1.57790646116224,9.36851500591358,6.39194201982126));
#204=CARTESIAN_POINT('',(1.39194986187022,9.39794319537222,6.57789861911328));
#205=CARTESIAN_POINT('',(1.28688934092167,9.41314073160093,6.66521717711817));
#206=CARTESIAN_POINT('',(1.05797891274082,9.44160914403958,6.81926167530234));
#207=CARTESIAN_POINT('',(0.934132669070048,9.45485229980436,6.8859981810075));
#208=CARTESIAN_POINT('',(0.675559563917764,9.4768378232422,6.99329182040496));
#209=CARTESIAN_POINT('',(0.540618581817235,9.48557906319787,7.03393422932773));
#210=CARTESIAN_POINT('',(0.268993374094954,9.49716384926986,7.08729477193439));
#211=CARTESIAN_POINT('',(0.132306297974075,9.5,7.1));
#212=CARTESIAN_POINT('',(-0.132306297974084,9.5,7.1));
#213=CARTESIAN_POINT('',(-0.268993374094963,9.49716384926986,7.08729477193439));
#214=CARTESIAN_POINT('',(-0.540618581817243,9.48557906319788,7.03393422932773));
#215=CARTESIAN_POINT('',(-0.675559563917773,9.4768378232422,6.99329182040496));
#216=CARTESIAN_POINT('',(-0.934132669070057,9.45485229980436,6.8859981810075));
#217=CARTESIAN_POINT('',(-1.05797891274083,9.44160914403958,6.81926167530234));
#218=CARTESIAN_POINT('',(-1.28688934092168,9.41314073160093,6.66521717711817));
#219=CARTESIAN_POINT('',(-1.39194986187023,9.39794319537222,6.57789861911328));
#220=CARTESIAN_POINT('',(-1.57790646116225,9.36851500591358,6.39194201982126));
#221=CARTESIAN_POINT('',(-1.66522589677436,9.35324335897208,6.28687785141605));
#222=CARTESIAN_POINT('',(-1.81926688429354,9.32450570398209,6.05796970411624));
#223=CARTESIAN_POINT('',(-1.88599937129835,9.31106917764845,5.93412938375652));
#224=CARTESIAN_POINT('',(-1.9932885523691,9.28869225107125,5.67556785649964));
#225=CARTESIAN_POINT('',(-2.03393053016164,9.27975611893228,5.54063235325536));
#226=CARTESIAN_POINT('',(-2.0872927669353,9.26789921901988,5.26900863845982));
#227=CARTESIAN_POINT('',(-2.1,9.26498785752037,5.13231745752666));
#228=CARTESIAN_POINT('',(-2.1,9.26498785752037,4.86768254247334));
#229=CARTESIAN_POINT('',(-2.0872927669353,9.26789921901988,4.73099136154018));
#230=CARTESIAN_POINT('',(-2.03393053016164,9.27975611893228,4.45936764674464));
#231=CARTESIAN_POINT('',(-1.9932885523691,9.28869225107125,4.32443214350036));
#232=CARTESIAN_POINT('',(-1.88599937129835,9.31106917764846,4.06587061624349));
#233=CARTESIAN_POINT('',(-1.81926688429354,9.32450570398209,3.94203029588375));
#234=CARTESIAN_POINT('',(-1.66522589677436,9.35324335897208,3.71312214858395));
#235=CARTESIAN_POINT('',(-1.57790646116225,9.36851500591358,3.60805798017874));
#236=CARTESIAN_POINT('',(-1.39194986187023,9.39794319537222,3.42210138088672));
#237=CARTESIAN_POINT('',(-1.28688934092168,9.41314073160093,3.33478282288183));
#238=CARTESIAN_POINT('',(-1.05797891274083,9.44160914403958,3.18073832469766));
#239=CARTESIAN_POINT('',(-0.934132669070059,9.45485229980436,3.1140018189925));
#240=CARTESIAN_POINT('',(-0.675559563917776,9.4768378232422,3.00670817959504));
#241=CARTESIAN_POINT('',(-0.540618581817246,9.48557906319787,2.96606577067227));
#242=CARTESIAN_POINT('',(-0.268993374094965,9.49716384926986,2.91270522806561));
#243=CARTESIAN_POINT('',(-0.132306297974084,9.5,2.90000000000001));
#244=CARTESIAN_POINT('',(0.132306297974075,9.5,2.90000000000001));
#245=CARTESIAN_POINT('',(0.268993374094956,9.49716384926986,2.91270522806561));
#246=CARTESIAN_POINT('',(0.540618581817237,9.48557906319787,2.96606577067227));
#247=CARTESIAN_POINT('',(0.675559563917767,9.4768378232422,3.00670817959504));
#248=CARTESIAN_POINT('',(0.93413266907005,9.45485229980436,3.1140018189925));
#249=CARTESIAN_POINT('',(1.05797891274082,9.44160914403958,3.18073832469767));
#250=CARTESIAN_POINT('',(1.28688934092167,9.41314073160093,3.33478282288183));
#251=CARTESIAN_POINT('',(1.39194986187022,9.39794319537222,3.42210138088672));
#252=CARTESIAN_POINT('',(1.57790646116224,9.36851500591358,3.60805798017874));
#253=CARTESIAN_POINT('',(1.66522589677435,9.35324335897208,3.71312214858395));
#254=CARTESIAN_POINT('',(1.81926688429353,9.3245057039821,3.94203029588376));
#255=CARTESIAN_POINT('',(1.88599937129834,9.31106917764846,4.06587061624349));
#256=CARTESIAN_POINT('',(1.99328855236909,9.28869225107125,4.32443214350036));
#257=CARTESIAN_POINT('',(2.03393053016163,9.27975611893229,4.45936764674464));
#258=CARTESIAN_POINT('',(2.08729276693529,9.26789921901989,4.73099136154018));
#259=CARTESIAN_POINT('',(2.1,9.26498785752037,4.86768254247334));
#260=CARTESIAN_POINT('',(2.1,9.26498785752037,5.0));
#261=SURFACE_SIDE_STYLE('',(#388));
#262=DRAUGHTING_PRE_DEFINED_CURVE_FONT('continuous');
#263=COLOUR_RGB('',0.501960813999176,0.501960813999176,0.501960813999176);
#264=EDGE_LOOP('',(#389));
#265=EDGE_LOOP('',(#390));
#266=AXIS2_PLACEMENT_3D('',#391,#392,#393);
#267=SURFACE_SIDE_STYLE('',(#394));
#268=DRAUGHTING_PRE_DEFINED_CURVE_FONT('continuous');
#269=COLOUR_RGB('',0.501960813999176,0.501960813999176,0.501960813999176);
#270=EDGE_LOOP('',(#395,#396));
#271=EDGE_LOOP('',(#397));
#272=EDGE_LOOP('',(#398));
#273=AXIS2_PLACEMENT_3D('',#399,#400,#401);
#274=SURFACE_SIDE_STYLE('',(#402));
#275=DRAUGHTING_PRE_DEFINED_CURVE_FONT('continuous');
#276=COLOUR_RGB('',0.501960813999176,0.501960813999176,0.501960813999176);
#277=EDGE_LOOP('',(#403));
#278=AXIS2_PLACEMENT_3D('',#404,#405,#406);
#279=SURFACE_SIDE_STYLE('',(#407));
#280=DRAUGHTING_PRE_DEFINED_CURVE_FONT('continuous');
#281=COLOUR_RGB('',0.501960813999176,0.501960813999176,0.501960813999176);
#282=EDGE_LOOP('',(#408));
#283=AXIS2_PLACEMENT_3D('',#409,#410,#411);
#284=DRAUGHTING_PRE_DEFINED_CURVE_FONT('continuous');
#285=COLOUR_RGB('',0.501960813999176,0.501960813999176,0.501960813999176);
#286=CARTESIAN_POINT('',(2.1,9.26498785752037,5.0));
#287=CARTESIAN_POINT('',(2.1,9.26498785752037,5.13231745752666));
#288=CARTESIAN_POINT('',(2.08729276693529,9.26789921901988,5.26900863845982));
#289=CARTESIAN_POINT('',(2.03393053016163,9.27975611893228,5.54063235325536));
#290=CARTESIAN_POINT('',(1.99328855236909,9.28869225107125,5.67556785649964));
#291=CARTESIAN_POINT('',(1.88599937129834,9.31106917764845,5.93412938375652));
#292=CARTESIAN_POINT('',(1.81926688429353,9.3245057039821,6.05796970411624));
#293=CARTESIAN_POINT('',(1.66522589677435,9.35324335897209,6.28687785141605));
#294=CARTESIAN_POINT('',(1.57790646116224,9.36851500591358,6.39194201982126));
#295=CARTESIAN_POINT('',(1.39194986187022,9.39794319537222,6.57789861911328));
#296=CARTESIAN_POINT('',(1.28688934092167,9.41314073160093,6.66521717711817));
#297=CARTESIAN_POINT('',(1.05797891274082,9.44160914403958,6.81926167530234));
#298=CARTESIAN_POINT('',(0.934132669070048,9.45485229980436,6.8859981810075));
#299=CARTESIAN_POINT('',(0.675559563917764,9.4768378232422,6.99329182040496));
#300=CARTESIAN_POINT('',(0.540618581817235,9.48557906319787,7.03393422932773));
#301=CARTESIAN_POINT('',(0.268993374094954,9.49716384926986,7.08729477193439));
#302=CARTESIAN_POINT('',(0.132306297974075,9.5,7.1));
#303=CARTESIAN_POINT('',(-0.132306297974084,9.5,7.1));
#304=CARTESIAN_POINT('',(-0.268993374094963,9.49716384926986,7.08729477193439));
#305=CARTESIAN_POINT('',(-0.540618581817243,9.48557906319788,7.03393422932773));
#306=CARTESIAN_POINT('',(-0.675559563917773,9.4768378232422,6.99329182040496));
#307=CARTESIAN_POINT('',(-0.934132669070057,9.45485229980436,6.8859981810075));
#308=CARTESIAN_POINT('',(-1.05797891274083,9.44160914403958,6.81926167530234));
#309=CARTESIAN_POINT('',(-1.28688934092168,9.41314073160093,6.66521717711817));
#310=CARTESIAN_POINT('',(-1.39194986187023,9.39794319537222,6.57789861911328));
#311=CARTESIAN_POINT('',(-1.57790646116225,9.36851500591358,6.39194201982126));
#312=CARTESIAN_POINT('',(-1.66522589677436,9.35324335897208,6.28687785141605));
#313=CARTESIAN_POINT('',(-1.81926688429354,9.32450570398209,6.05796970411624));
#314=CARTESIAN_POINT('',(-1.88599937129835,9.31106917764845,5.93412938375652));
#315=CARTESIAN_POINT('',(-1.9932885523691,9.28869225107125,5.67556785649964));
#316=CARTESIAN_POINT('',(-2.03393053016164,9.27975611893228,5.54063235325536));
#317=CARTESIAN_POINT('',(-2.0872927669353,9.26789921901988,5.26900863845982));
#318=CARTESIAN_POINT('',(-2.1,9.26498785752037,5.13231745752666));
#319=CARTESIAN_POINT('',(-2.1,9.26498785752037,4.86768254247334));
#320=CARTESIAN_POINT('',(-2.0872927669353,9.26789921901988,4.73099136154018));
#321=CARTESIAN_POINT('',(-2.03393053016164,9.27975611893228,4.45936764674464));
#322=CARTESIAN_POINT('',(-1.9932885523691,9.28869225107125,4.32443214350036));
#323=CARTESIAN_POINT('',(-1.88599937129835,9.31106917764846,4.06587061624349));
#324=CARTESIAN_POINT('',(-1.81926688429354,9.32450570398209,3.94203029588375));
#325=CARTESIAN_POINT('',(-1.66522589677436,9.35324335897208,3.71312214858395));
#326=CARTESIAN_POINT('',(-1.57790646116225,9.36851500591358,3.60805798017874));
#327=CARTESIAN_POINT('',(-1.39194986187023,9.39794319537222,3.42210138088672));
#328=CARTESIAN_POINT('',(-1.28688934092168,9.41314073160093,3.33478282288183));
#329=CARTESIAN_POINT('',(-1.05797891274083,9.44160914403958,3.18073832469766));
#330=CARTESIAN_POINT('',(-0.934132669070059,9.45485229980436,3.1140018189925));
#331=CARTESIAN_POINT('',(-0.675559563917776,9.4768378232422,3.00670817959504));
#332=CARTESIAN_POINT('',(-0.540618581817246,9.48557906319787,2.96606577067227));
#333=CARTESIAN_POINT('',(-0.268993374094965,9.49716384926986,2.91270522806561));
#334=CARTESIAN_POINT('',(-0.132306297974084,9.5,2.90000000000001));
#335=CARTESIAN_POINT('',(0.132306297974075,9.5,2.90000000000001));
#336=CARTESIAN_POINT('',(0.268993374094956,9.49716384926986,2.91270522806561));
#337=CARTESIAN_POINT('',(0.540618581817237,9.48557906319787,2.96606577067227));
#338=CARTESIAN_POINT('',(0.675559563917767,9.4768378232422,3.00670817959504));
#339=CARTESIAN_POINT('',(0.93413266907005,9.45485229980436,3.1140018189925));
#340=CARTESIAN_POINT('',(1.05797891274082,9.44160914403958,3.18073832469767));
#341=CARTESIAN_POINT('',(1.28688934092167,9.41314073160093,3.33478282288183));
#342=CARTESIAN_POINT('',(1.39194986187022,9.39794319537222,3.42210138088672));
#343=CARTESIAN_POINT('',(1.57790646116224,9.36851500591358,3.60805798017874));
#344=CARTESIAN_POINT('',(1.66522589677435,9.35324335897208,3.71312214858395));
#345=CARTESIAN_POINT('',(1.81926688429353,9.3245057039821,3.94203029588376));
#346=CARTESIAN_POINT('',(1.88599937129834,9.31106917764846,4.06587061624349));
#347=CARTESIAN_POINT('',(1.99328855236909,9.28869225107125,4.32443214350036));
#348=CARTESIAN_POINT('',(2.03393053016163,9.27975611893229,4.45936764674464));
#349=CARTESIAN_POINT('',(2.08729276693529,9.26789921901989,4.73099136154018));
#350=CARTESIAN_POINT('',(2.1,9.26498785752037,4.86768254247334));
#351=CARTESIAN_POINT('',(2.1,9.26498785752037,5.0));
#352=DRAUGHTING_PRE_DEFINED_CURVE_FONT('continuous');
#353=COLOUR_RGB('',0.501960813999176,0.501960813999176,0.501960813999176);
#354=CARTESIAN_POINT('',(5.5,0.0,14.0));
#355=AXIS2_PLACEMENT_3D('',#412,#413,#414);
#357=CARTESIAN_POINT('',(0.0,0.0,5.81707229594993E-016));
#358=DIRECTION('',(-6.12323399573677E-017,-1.22464679914735E-016,1.0));
#359=DIRECTION('',(1.0,-7.49879891330927E-033,6.12323399573677E-017));
#360=SURFACE_STYLE_FILL_AREA(#415);
#361=ORIENTED_EDGE('',*,*,#75,.F.);
#362=ORIENTED_EDGE('',*,*,#39,.F.);
#363=CARTESIAN_POINT('',(0.0,0.0,0.0));
#364=DIRECTION('',(0.0,0.0,-1.0));
#365=DIRECTION('',(1.0,0.0,0.0));
#366=CARTESIAN_POINT('',(-8.57252759403147E-015,-1.71450551880629E-014,140.0));
#367=DIRECTION('',(6.12323399573677E-017,1.22464679914735E-016,-1.0));
#368=DIRECTION('',(-1.23259516440783E-032,1.0,1.22464679914735E-016));
#369=CARTESIAN_POINT('',(-4.40872847693047E-015,9.2,5.0));
#370=DIRECTION('',(-0.0,1.0,0.0));
#371=DIRECTION('',(1.0,0.0,0.0));
#372=CARTESIAN_POINT('',(0.0,0.0,0.0));
#373=DIRECTION('',(6.12323399573677E-017,1.22464679914735E-016,-1.0));
#374=DIRECTION('',(-1.23259516440783E-032,1.0,1.22464679914735E-016));
#375=SURFACE_STYLE_FILL_AREA(#416);
#376=ORIENTED_EDGE('',*,*,#59,.F.);
#377=ORIENTED_EDGE('',*,*,#73,.F.);
#378=ORIENTED_EDGE('',*,*,#46,.F.);
#379=CARTESIAN_POINT('',(-4.40872847693047E-015,9.5,5.0));
#380=DIRECTION('',(0.0,-1.0,0.0));
#381=DIRECTION('',(1.0,0.0,0.0));
#382=SURFACE_STYLE_FILL_AREA(#417);
#383=SURFACE_STYLE_FILL_AREA(#418);
#384=ORIENTED_EDGE('',*,*,#75,.T.);
#385=CARTESIAN_POINT('',(0.974294846427556,5.413016677623,14.0));
#386=DIRECTION('',(0.0,0.0,1.0));
#387=DIRECTION('',(1.0,0.0,0.0));
#388=SURFACE_STYLE_FILL_AREA(#419);
#389=ORIENTED_EDGE('',*,*,#39,.T.);
#390=ORIENTED_EDGE('',*,*,#48,.T.);
#391=CARTESIAN_POINT('',(-5.8548270309372E-032,4.75,5.81707229594993E-016));
#392=DIRECTION('',(6.12323399573677E-017,1.22464679914735E-016,-1.0));
#393=DIRECTION('',(-1.0,0.0,-6.12323399573677E-017));
#394=SURFACE_STYLE_FILL_AREA(#420);
#395=ORIENTED_EDGE('',*,*,#59,.T.);
#396=ORIENTED_EDGE('',*,*,#73,.T.);
#397=ORIENTED_EDGE('',*,*,#48,.F.);
#398=ORIENTED_EDGE('',*,*,#44,.T.);
#399=CARTESIAN_POINT('',(-4.28626379701574E-015,-8.57252759403147E-015,70.0));
#400=DIRECTION('',(-6.12323399573677E-017,-1.22464679914735E-016,1.0));
#401=DIRECTION('',(-1.23259516440783E-032,1.0,1.22464679914735E-016));
#402=SURFACE_STYLE_FILL_AREA(#421);
#403=ORIENTED_EDGE('',*,*,#46,.T.);
#404=CARTESIAN_POINT('',(0.37200348681779,9.2,2.9332118139985));
#405=DIRECTION('',(-0.0,1.0,0.0));
#406=DIRECTION('',(1.0,0.0,0.0));
#407=SURFACE_STYLE_FILL_AREA(#422);
#408=ORIENTED_EDGE('',*,*,#44,.F.);
#409=CARTESIAN_POINT('',(-8.57252759403147E-015,4.74999999999998,140.0));
#410=DIRECTION('',(-9.18338008663382E-049,-1.22464679914735E-016,1.0));
#411=DIRECTION('',(1.0,-7.49879891330927E-033,0.0));
#412=CARTESIAN_POINT('',(0.0,0.0,14.0));
#413=DIRECTION('',(0.0,0.0,-1.0));
#414=DIRECTION('',(1.0,0.0,0.0));
#415=FILL_AREA_STYLE('',(#423));
#416=FILL_AREA_STYLE('',(#424));
#417=FILL_AREA_STYLE('',(#425));
#418=FILL_AREA_STYLE('',(#426));
#419=FILL_AREA_STYLE('',(#427));
#420=FILL_AREA_STYLE('',(#428));
#421=FILL_AREA_STYLE('',(#429));
#422=FILL_AREA_STYLE('',(#430));
#423=FILL_AREA_STYLE_COLOUR('',#431);
#424=FILL_AREA_STYLE_COLOUR('',#432);
#425=FILL_AREA_STYLE_COLOUR('',#433);
#426=FILL_AREA_STYLE_COLOUR('',#434);
#427=FILL_AREA_STYLE_COLOUR('',#435);
#428=FILL_AREA_STYLE_COLOUR('',#436);
#429=FILL_AREA_STYLE_COLOUR('',#437);
#430=FILL_AREA_STYLE_COLOUR('',#438);
#431=COLOUR_RGB('',0.501960813999176,0.501960813999176,0.501960813999176);
#432=COLOUR_RGB('',0.501960813999176,0.501960813999176,0.501960813999176);
#433=COLOUR_RGB('',0.501960813999176,0.501960813999176,0.501960813999176);
#434=COLOUR_RGB('',0.501960813999176,0.501960813999176,0.501960813999176);
#435=COLOUR_RGB('',0.501960813999176,0.501960813999176,0.501960813999176);
#436=COLOUR_RGB('',0.501960813999176,0.501960813999176,0.501960813999176);
#437=COLOUR_RGB('',0.501960813999176,0.501960813999176,0.501960813999176);
#438=COLOUR_RGB('',0.501960813999176,0.501960813999176,0.501960813999176);
ENDSEC;
END-ISO-10303-21;
