ISO-10303-21;
HEADER;
FILE_DESCRIPTION((''),'1');
FILE_NAME('T:/00_BIG-HP\X2\FF71FF6FFF8CFF9F\X0\/2022_\X2\30C030A630F330ED30FC30C930C730FC30BF\X0\/02_STEP\X2\FF83FF9EFF70FF80\X0\/LINK\X2\7528FF83FF9EFF70FF80FF8EFF99FF80FF9E\X0\/CK\X2\FF8DFF6FFF84FF9E30FBFF71FF78FF7EFF7BFF98\X0\/10_\X2\4ED54E0A305275284E38FF8AFF9EFF72FF84FF7CFF98FF70FF7DFF9E\X0\/02_\X2\4E38FF8AFF9EFF72FF84FF7CFF6CFF9DFF78\X0\/\X2\5C5E6027590966F4\X0\/ST16W-M10-160.stp','2022-09-05T03:25:02',(''),(''),'Spatial Interop R21 SP3','Kubotek KeyCreator 2011 V10.0.2 (22737)',' ');
FILE_SCHEMA(('automotive_design'));
ENDSEC;
DATA;
#1=MECHANICAL_DESIGN_GEOMETRIC_PRESENTATION_REPRESENTATION(' ',(#10,#11,#12,#13,#14,#15),#6);
#2=PRODUCT_DEFINITION_CONTEXT('',#16,'design');
#3=APPLICATION_PROTOCOL_DEFINITION('INTERNATIONAL STANDARD','automotive_design',1994,#16);
#4=PRODUCT_CATEGORY_RELATIONSHIP('NONE','NONE',#17,#18);
#5=SHAPE_DEFINITION_REPRESENTATION(#19,#20);
#6= (GEOMETRIC_REPRESENTATION_CONTEXT(3)GLOBAL_UNCERTAINTY_ASSIGNED_CONTEXT((#23))GLOBAL_UNIT_ASSIGNED_CONTEXT((#25,#26,#27))REPRESENTATION_CONTEXT('NONE','WORKSPACE'));
#10=STYLED_ITEM('',(#29),#30);
#11=STYLED_ITEM('',(#31),#32);
#12=STYLED_ITEM('',(#33,#34),#35);
#13=STYLED_ITEM('',(#36,#37),#38);
#14=STYLED_ITEM('',(#39,#40),#41);
#15=STYLED_ITEM('',(#42,#43),#44);
#16=APPLICATION_CONTEXT(' ');
#17=PRODUCT_CATEGORY('part','NONE');
#18=PRODUCT_RELATED_PRODUCT_CATEGORY('detail',' ',(#45));
#19=PRODUCT_DEFINITION_SHAPE('NONE','NONE',#46);
#20=ADVANCED_BREP_SHAPE_REPRESENTATION('240[2]',(#41,#47),#6);
#23=UNCERTAINTY_MEASURE_WITH_UNIT(LENGTH_MEASURE(1.0E-006),#25,'','');
#25= (CONVERSION_BASED_UNIT('MILLIMETRE',#50)LENGTH_UNIT()NAMED_UNIT(#53));
#26= (NAMED_UNIT(#55)PLANE_ANGLE_UNIT()SI_UNIT($,.RADIAN.));
#27= (NAMED_UNIT(#55)SOLID_ANGLE_UNIT()SI_UNIT($,.STERADIAN.));
#29=PRESENTATION_STYLE_ASSIGNMENT((#61));
#30=EDGE_CURVE('240[2]',#62,#62,#63,.T.);
#31=PRESENTATION_STYLE_ASSIGNMENT((#64));
#32=EDGE_CURVE('240[2]',#65,#65,#66,.T.);
#33=PRESENTATION_STYLE_ASSIGNMENT((#67));
#34=PRESENTATION_STYLE_ASSIGNMENT((#68));
#35=ADVANCED_FACE('240[2]',(#69),#70,.T.);
#36=PRESENTATION_STYLE_ASSIGNMENT((#71));
#37=PRESENTATION_STYLE_ASSIGNMENT((#72));
#38=ADVANCED_FACE('240[2]',(#73),#74,.T.);
#39=PRESENTATION_STYLE_ASSIGNMENT((#75));
#40=PRESENTATION_STYLE_ASSIGNMENT((#76));
#41=MANIFOLD_SOLID_BREP('240[2]',#77);
#42=PRESENTATION_STYLE_ASSIGNMENT((#78));
#43=PRESENTATION_STYLE_ASSIGNMENT((#79));
#44=ADVANCED_FACE('240[2]',(#80,#81),#82,.T.);
#45=PRODUCT('240[2]','240[2]','PART-240[2]-DESC',(#83));
#46=PRODUCT_DEFINITION('NONE','NONE',#84,#2);
#47=AXIS2_PLACEMENT_3D('',#85,#86,#87);
#50=LENGTH_MEASURE_WITH_UNIT(LENGTH_MEASURE(1.0),#88);
#53=DIMENSIONAL_EXPONENTS(1.0,0.0,0.0,0.0,0.0,0.0,0.0);
#55=DIMENSIONAL_EXPONENTS(0.0,0.0,0.0,0.0,0.0,0.0,0.0);
#61=CURVE_STYLE('',#89,POSITIVE_LENGTH_MEASURE(1000.0),#90);
#62=VERTEX_POINT('',#91);
#63=CIRCLE('',#92,8.0);
#64=CURVE_STYLE('',#93,POSITIVE_LENGTH_MEASURE(1000.0),#94);
#65=VERTEX_POINT('',#95);
#66=CIRCLE('',#96,8.0);
#67=SURFACE_STYLE_USAGE(.BOTH.,#97);
#68=CURVE_STYLE('',#98,POSITIVE_LENGTH_MEASURE(1000.0),#99);
#69=FACE_OUTER_BOUND('',#100,.T.);
#70=PLANE('',#101);
#71=SURFACE_STYLE_USAGE(.BOTH.,#102);
#72=CURVE_STYLE('',#103,POSITIVE_LENGTH_MEASURE(1000.0),#104);
#73=FACE_OUTER_BOUND('',#105,.T.);
#74=PLANE('',#106);
#75=SURFACE_STYLE_USAGE(.BOTH.,#107);
#76=CURVE_STYLE('',#108,POSITIVE_LENGTH_MEASURE(1000.0),#109);
#77=CLOSED_SHELL('',(#35,#44,#38));
#78=SURFACE_STYLE_USAGE(.BOTH.,#110);
#79=CURVE_STYLE('',#111,POSITIVE_LENGTH_MEASURE(1000.0),#112);
#80=FACE_BOUND('',#113,.T.);
#81=FACE_BOUND('',#114,.T.);
#82=CYLINDRICAL_SURFACE('',#115,8.0);
#83=PRODUCT_CONTEXT('',#16,'mechanical');
#84=PRODUCT_DEFINITION_FORMATION_WITH_SPECIFIED_SOURCE(' ','NONE',#45,.NOT_KNOWN.);
#85=CARTESIAN_POINT('',(0.0,0.0,0.0));
#86=DIRECTION('',(0.0,0.0,1.0));
#87=DIRECTION('',(1.0,0.0,0.0));
#88= (NAMED_UNIT(#53)LENGTH_UNIT()SI_UNIT(.MILLI.,.METRE.));
#89=DRAUGHTING_PRE_DEFINED_CURVE_FONT('continuous');
#90=COLOUR_RGB('',0.501960813999176,0.501960813999176,0.501960813999176);
#91=CARTESIAN_POINT('',(0.0,8.0,0.0));
#92=AXIS2_PLACEMENT_3D('',#117,#118,#119);
#93=DRAUGHTING_PRE_DEFINED_CURVE_FONT('continuous');
#94=COLOUR_RGB('',0.501960813999176,0.501960813999176,0.501960813999176);
#95=CARTESIAN_POINT('',(-1.02564169428591E-014,7.99999999999998,167.5));
#96=AXIS2_PLACEMENT_3D('',#120,#121,#122);
#97=SURFACE_SIDE_STYLE('',(#123));
#98=DRAUGHTING_PRE_DEFINED_CURVE_FONT('continuous');
#99=COLOUR_RGB('',0.501960813999176,0.501960813999176,0.501960813999176);
#100=EDGE_LOOP('',(#124));
#101=AXIS2_PLACEMENT_3D('',#125,#126,#127);
#102=SURFACE_SIDE_STYLE('',(#128));
#103=DRAUGHTING_PRE_DEFINED_CURVE_FONT('continuous');
#104=COLOUR_RGB('',0.501960813999176,0.501960813999176,0.501960813999176);
#105=EDGE_LOOP('',(#129));
#106=AXIS2_PLACEMENT_3D('',#130,#131,#132);
#107=SURFACE_SIDE_STYLE('',(#133));
#108=DRAUGHTING_PRE_DEFINED_CURVE_FONT('continuous');
#109=COLOUR_RGB('',0.501960813999176,0.501960813999176,0.501960813999176);
#110=SURFACE_SIDE_STYLE('',(#134));
#111=DRAUGHTING_PRE_DEFINED_CURVE_FONT('continuous');
#112=COLOUR_RGB('',0.501960813999176,0.501960813999176,0.501960813999176);
#113=EDGE_LOOP('',(#135));
#114=EDGE_LOOP('',(#136));
#115=AXIS2_PLACEMENT_3D('',#137,#138,#139);
#117=CARTESIAN_POINT('',(0.0,0.0,0.0));
#118=DIRECTION('',(6.12323399573677E-017,1.22464679914735E-016,-1.0));
#119=DIRECTION('',(-1.23259516440783E-032,1.0,1.22464679914735E-016));
#120=CARTESIAN_POINT('',(-1.02564169428591E-014,-2.05128338857182E-014,167.5));
#121=DIRECTION('',(6.12323399573677E-017,1.22464679914735E-016,-1.0));
#122=DIRECTION('',(-1.23259516440783E-032,1.0,1.22464679914735E-016));
#123=SURFACE_STYLE_FILL_AREA(#140);
#124=ORIENTED_EDGE('',*,*,#32,.F.);
#125=CARTESIAN_POINT('',(-1.02564169428591E-014,3.99999999999998,167.5));
#126=DIRECTION('',(7.49879891330927E-033,-1.22464679914735E-016,1.0));
#127=DIRECTION('',(1.0,6.12323399573677E-017,0.0));
#128=SURFACE_STYLE_FILL_AREA(#141);
#129=ORIENTED_EDGE('',*,*,#30,.T.);
#130=CARTESIAN_POINT('',(0.0,4.0,0.0));
#131=DIRECTION('',(6.12323399573677E-017,1.22464679914735E-016,-1.0));
#132=DIRECTION('',(-1.0,0.0,-6.12323399573677E-017));
#133=SURFACE_STYLE_FILL_AREA(#142);
#134=SURFACE_STYLE_FILL_AREA(#143);
#135=ORIENTED_EDGE('',*,*,#30,.F.);
#136=ORIENTED_EDGE('',*,*,#32,.T.);
#137=CARTESIAN_POINT('',(-5.12820847142954E-015,-1.02564169428591E-014,83.75));
#138=DIRECTION('',(6.12323399573677E-017,1.22464679914735E-016,-1.0));
#139=DIRECTION('',(-1.23259516440783E-032,1.0,1.22464679914735E-016));
#140=FILL_AREA_STYLE('',(#144));
#141=FILL_AREA_STYLE('',(#145));
#142=FILL_AREA_STYLE('',(#146));
#143=FILL_AREA_STYLE('',(#147));
#144=FILL_AREA_STYLE_COLOUR('',#148);
#145=FILL_AREA_STYLE_COLOUR('',#149);
#146=FILL_AREA_STYLE_COLOUR('',#150);
#147=FILL_AREA_STYLE_COLOUR('',#151);
#148=COLOUR_RGB('',0.501960813999176,0.501960813999176,0.501960813999176);
#149=COLOUR_RGB('',0.501960813999176,0.501960813999176,0.501960813999176);
#150=COLOUR_RGB('',0.501960813999176,0.501960813999176,0.501960813999176);
#151=COLOUR_RGB('',0.501960813999176,0.501960813999176,0.501960813999176);
ENDSEC;
END-ISO-10303-21;
