ISO-10303-21;
HEADER;
FILE_DESCRIPTION((''),'1');
FILE_NAME('T:/02_3D_Field-HP\X2\FF71FF6FFF8CFF9F5916\X0\/02_Step_Field-HP\X2\FF71FF6FFF8CFF9F5916\X0\/21_CK\X2\FF8EFF9EFF70FF98FF9DFF78FF9EFF7CFF7DFF83FF91\X0\/08_\X2\FF7BFF72FF84FF9EFF9BFF6FFF784E38FF8AFF9EFF72FF84FF8EFF99FF80FF9E\X0\+\X2\4E38FF8AFF9EFF72FF84FF7CFF6CFF9DFF78\X0\/\X2\8FFD52A05206\X0\_20230904/ST16-SL9.stp','2023-09-04T02:24:32',(''),(''),'Spatial Interop R21 SP3','Kubotek KeyCreator 2011 V10.0.2 (22737)',' ');
FILE_SCHEMA(('automotive_design'));
ENDSEC;
DATA;
#1=MECHANICAL_DESIGN_GEOMETRIC_PRESENTATION_REPRESENTATION(' ',(#10,#11,#12,#13,#14,#15,#16,#17,#18,#19,#20,#21,#22,#23,#24),#6);
#2=PRODUCT_DEFINITION_CONTEXT('',#25,'design');
#3=APPLICATION_PROTOCOL_DEFINITION('INTERNATIONAL STANDARD','automotive_design',1994,#25);
#4=PRODUCT_CATEGORY_RELATIONSHIP('NONE','NONE',#26,#27);
#5=SHAPE_DEFINITION_REPRESENTATION(#28,#29);
#6= (GEOMETRIC_REPRESENTATION_CONTEXT(3)GLOBAL_UNCERTAINTY_ASSIGNED_CONTEXT((#32))GLOBAL_UNIT_ASSIGNED_CONTEXT((#34,#35,#36))REPRESENTATION_CONTEXT('NONE','WORKSPACE'));
#10=STYLED_ITEM('',(#38,#39),#40);
#11=STYLED_ITEM('',(#41),#42);
#12=STYLED_ITEM('',(#43,#44),#45);
#13=STYLED_ITEM('',(#46),#47);
#14=STYLED_ITEM('',(#48,#49),#50);
#15=STYLED_ITEM('',(#51),#52);
#16=STYLED_ITEM('',(#53,#54),#55);
#17=STYLED_ITEM('',(#56),#57);
#18=STYLED_ITEM('',(#58,#59),#60);
#19=STYLED_ITEM('',(#61,#62),#63);
#20=STYLED_ITEM('',(#64),#65);
#21=STYLED_ITEM('',(#66),#67);
#22=STYLED_ITEM('',(#68,#69),#70);
#23=STYLED_ITEM('',(#71),#72);
#24=STYLED_ITEM('',(#73,#74),#75);
#25=APPLICATION_CONTEXT(' ');
#26=PRODUCT_CATEGORY('part','NONE');
#27=PRODUCT_RELATED_PRODUCT_CATEGORY('detail',' ',(#76));
#28=PRODUCT_DEFINITION_SHAPE('NONE','NONE',#77);
#29=ADVANCED_BREP_SHAPE_REPRESENTATION('240[2]',(#45,#78),#6);
#32=UNCERTAINTY_MEASURE_WITH_UNIT(LENGTH_MEASURE(1.0E-006),#34,'','');
#34= (CONVERSION_BASED_UNIT('MILLIMETRE',#81)LENGTH_UNIT()NAMED_UNIT(#84));
#35= (NAMED_UNIT(#86)PLANE_ANGLE_UNIT()SI_UNIT($,.RADIAN.));
#36= (NAMED_UNIT(#86)SOLID_ANGLE_UNIT()SI_UNIT($,.STERADIAN.));
#38=PRESENTATION_STYLE_ASSIGNMENT((#92));
#39=PRESENTATION_STYLE_ASSIGNMENT((#93));
#40=ADVANCED_FACE('240[2]',(#94,#95),#96,.T.);
#41=PRESENTATION_STYLE_ASSIGNMENT((#97));
#42=EDGE_CURVE('240[2]',#98,#98,#99,.T.);
#43=PRESENTATION_STYLE_ASSIGNMENT((#100));
#44=PRESENTATION_STYLE_ASSIGNMENT((#101));
#45=MANIFOLD_SOLID_BREP('240[2]',#102);
#46=PRESENTATION_STYLE_ASSIGNMENT((#103));
#47=EDGE_CURVE('240[2]',#104,#104,#105,.T.);
#48=PRESENTATION_STYLE_ASSIGNMENT((#106));
#49=PRESENTATION_STYLE_ASSIGNMENT((#107));
#50=ADVANCED_FACE('240[2]',(#108,#109),#110,.F.);
#51=PRESENTATION_STYLE_ASSIGNMENT((#111));
#52=EDGE_CURVE('240[2]',#112,#112,#113,.T.);
#53=PRESENTATION_STYLE_ASSIGNMENT((#114));
#54=PRESENTATION_STYLE_ASSIGNMENT((#115));
#55=ADVANCED_FACE('240[2]',(#116,#117),#118,.T.);
#56=PRESENTATION_STYLE_ASSIGNMENT((#119));
#57=EDGE_CURVE('240[2]',#120,#120,#121,.T.);
#58=PRESENTATION_STYLE_ASSIGNMENT((#122));
#59=PRESENTATION_STYLE_ASSIGNMENT((#123));
#60=ADVANCED_FACE('240[2]',(#124,#125),#126,.T.);
#61=PRESENTATION_STYLE_ASSIGNMENT((#127));
#62=PRESENTATION_STYLE_ASSIGNMENT((#128));
#63=ADVANCED_FACE('240[2]',(#129,#130),#131,.T.);
#64=PRESENTATION_STYLE_ASSIGNMENT((#132));
#65=EDGE_CURVE('240[2]',#133,#133,#134,.T.);
#66=PRESENTATION_STYLE_ASSIGNMENT((#135));
#67=EDGE_CURVE('240[2]',#136,#136,#137,.T.);
#68=PRESENTATION_STYLE_ASSIGNMENT((#138));
#69=PRESENTATION_STYLE_ASSIGNMENT((#139));
#70=ADVANCED_FACE('240[2]',(#140,#141),#142,.T.);
#71=PRESENTATION_STYLE_ASSIGNMENT((#143));
#72=EDGE_CURVE('240[2]',#144,#144,#145,.T.);
#73=PRESENTATION_STYLE_ASSIGNMENT((#146));
#74=PRESENTATION_STYLE_ASSIGNMENT((#147));
#75=ADVANCED_FACE('240[2]',(#148,#149),#150,.T.);
#76=PRODUCT('240[2]','240[2]','PART-240[2]-DESC',(#151));
#77=PRODUCT_DEFINITION('NONE','NONE',#152,#2);
#78=AXIS2_PLACEMENT_3D('',#153,#154,#155);
#81=LENGTH_MEASURE_WITH_UNIT(LENGTH_MEASURE(1.0),#156);
#84=DIMENSIONAL_EXPONENTS(1.0,0.0,0.0,0.0,0.0,0.0,0.0);
#86=DIMENSIONAL_EXPONENTS(0.0,0.0,0.0,0.0,0.0,0.0,0.0);
#92=SURFACE_STYLE_USAGE(.BOTH.,#157);
#93=CURVE_STYLE('',#158,POSITIVE_LENGTH_MEASURE(1000.0),#159);
#94=FACE_OUTER_BOUND('',#160,.T.);
#95=FACE_BOUND('',#161,.T.);
#96=PLANE('',#162);
#97=CURVE_STYLE('',#163,POSITIVE_LENGTH_MEASURE(1000.0),#164);
#98=VERTEX_POINT('',#165);
#99=CIRCLE('',#166,4.49999999999976);
#100=SURFACE_STYLE_USAGE(.BOTH.,#167);
#101=CURVE_STYLE('',#168,POSITIVE_LENGTH_MEASURE(1000.0),#169);
#102=CLOSED_SHELL('',(#40,#70,#60,#55,#63,#75,#50));
#103=CURVE_STYLE('',#170,POSITIVE_LENGTH_MEASURE(1000.0),#171);
#104=VERTEX_POINT('',#172);
#105=CIRCLE('',#173,4.50000000000003);
#106=SURFACE_STYLE_USAGE(.BOTH.,#174);
#107=CURVE_STYLE('',#175,POSITIVE_LENGTH_MEASURE(1000.0),#176);
#108=FACE_BOUND('',#177,.T.);
#109=FACE_BOUND('',#178,.T.);
#110=CYLINDRICAL_SURFACE('',#179,4.49999999999989);
#111=CURVE_STYLE('',#180,POSITIVE_LENGTH_MEASURE(1000.0),#181);
#112=VERTEX_POINT('',#182);
#113=CIRCLE('',#183,11.5);
#114=SURFACE_STYLE_USAGE(.BOTH.,#184);
#115=CURVE_STYLE('',#185,POSITIVE_LENGTH_MEASURE(1000.0),#186);
#116=FACE_BOUND('',#187,.T.);
#117=FACE_BOUND('',#188,.T.);
#118=CYLINDRICAL_SURFACE('',#189,11.5);
#119=CURVE_STYLE('',#190,POSITIVE_LENGTH_MEASURE(1000.0),#191);
#120=VERTEX_POINT('',#192);
#121=CIRCLE('',#193,8.5882381258704);
#122=SURFACE_STYLE_USAGE(.BOTH.,#194);
#123=CURVE_STYLE('',#195,POSITIVE_LENGTH_MEASURE(1000.0),#196);
#124=FACE_OUTER_BOUND('',#197,.T.);
#125=FACE_BOUND('',#198,.T.);
#126=PLANE('',#199);
#127=SURFACE_STYLE_USAGE(.BOTH.,#200);
#128=CURVE_STYLE('',#201,POSITIVE_LENGTH_MEASURE(1000.0),#202);
#129=FACE_BOUND('',#203,.T.);
#130=FACE_BOUND('',#204,.T.);
#131=CONICAL_SURFACE('',#205,10.0441190629352,0.349065850398863);
#132=CURVE_STYLE('',#206,POSITIVE_LENGTH_MEASURE(1000.0),#207);
#133=VERTEX_POINT('',#208);
#134=CIRCLE('',#209,11.5000000000001);
#135=CURVE_STYLE('',#210,POSITIVE_LENGTH_MEASURE(1000.0),#211);
#136=VERTEX_POINT('',#212);
#137=CIRCLE('',#213,8.00000000000002);
#138=SURFACE_STYLE_USAGE(.BOTH.,#214);
#139=CURVE_STYLE('',#215,POSITIVE_LENGTH_MEASURE(1000.0),#216);
#140=FACE_BOUND('',#217,.T.);
#141=FACE_BOUND('',#218,.T.);
#142=CYLINDRICAL_SURFACE('',#219,8.00000000000001);
#143=CURVE_STYLE('',#220,POSITIVE_LENGTH_MEASURE(1000.0),#221);
#144=VERTEX_POINT('',#222);
#145=CIRCLE('',#223,8.0);
#146=SURFACE_STYLE_USAGE(.BOTH.,#224);
#147=CURVE_STYLE('',#225,POSITIVE_LENGTH_MEASURE(1000.0),#226);
#148=FACE_BOUND('',#227,.T.);
#149=FACE_OUTER_BOUND('',#228,.T.);
#150=PLANE('',#229);
#151=PRODUCT_CONTEXT('',#25,'mechanical');
#152=PRODUCT_DEFINITION_FORMATION_WITH_SPECIFIED_SOURCE(' ','NONE',#76,.NOT_KNOWN.);
#153=CARTESIAN_POINT('',(0.0,0.0,0.0));
#154=DIRECTION('',(0.0,0.0,1.0));
#155=DIRECTION('',(1.0,0.0,0.0));
#156= (NAMED_UNIT(#84)LENGTH_UNIT()SI_UNIT(.MILLI.,.METRE.));
#157=SURFACE_SIDE_STYLE('',(#231));
#158=DRAUGHTING_PRE_DEFINED_CURVE_FONT('continuous');
#159=COLOUR_RGB('',0.501960813999176,0.501960813999176,0.501960813999176);
#160=EDGE_LOOP('',(#232));
#161=EDGE_LOOP('',(#233));
#162=AXIS2_PLACEMENT_3D('',#234,#235,#236);
#163=DRAUGHTING_PRE_DEFINED_CURVE_FONT('continuous');
#164=COLOUR_RGB('',0.501960813999176,0.501960813999176,0.501960813999176);
#165=CARTESIAN_POINT('',(-6.12323399573677E-015,4.49999999999978,100.0));
#166=AXIS2_PLACEMENT_3D('',#237,#238,#239);
#167=SURFACE_SIDE_STYLE('',(#240));
#168=DRAUGHTING_PRE_DEFINED_CURVE_FONT('continuous');
#169=COLOUR_RGB('',0.501960813999176,0.501960813999176,0.501960813999176);
#170=DRAUGHTING_PRE_DEFINED_CURVE_FONT('continuous');
#171=COLOUR_RGB('',0.501960813999176,0.501960813999176,0.501960813999176);
#172=CARTESIAN_POINT('',(0.0,4.50000000000003,0.0));
#173=AXIS2_PLACEMENT_3D('',#241,#242,#243);
#174=SURFACE_SIDE_STYLE('',(#244));
#175=DRAUGHTING_PRE_DEFINED_CURVE_FONT('continuous');
#176=COLOUR_RGB('',0.501960813999176,0.501960813999176,0.501960813999176);
#177=EDGE_LOOP('',(#245));
#178=EDGE_LOOP('',(#246));
#179=AXIS2_PLACEMENT_3D('',#247,#248,#249);
#180=DRAUGHTING_PRE_DEFINED_CURVE_FONT('continuous');
#181=COLOUR_RGB('',0.501960813999176,0.501960813999176,0.501960813999176);
#182=CARTESIAN_POINT('',(-1.53080849893419E-015,11.5,25.0));
#183=AXIS2_PLACEMENT_3D('',#250,#251,#252);
#184=SURFACE_SIDE_STYLE('',(#253));
#185=DRAUGHTING_PRE_DEFINED_CURVE_FONT('continuous');
#186=COLOUR_RGB('',0.501960813999176,0.501960813999176,0.501960813999176);
#187=EDGE_LOOP('',(#254));
#188=EDGE_LOOP('',(#255));
#189=AXIS2_PLACEMENT_3D('',#256,#257,#258);
#190=DRAUGHTING_PRE_DEFINED_CURVE_FONT('continuous');
#191=COLOUR_RGB('',0.501960813999176,0.501960813999176,0.501960813999176);
#192=CARTESIAN_POINT('',(0.0,8.5882381258704,0.0));
#193=AXIS2_PLACEMENT_3D('',#259,#260,#261);
#194=SURFACE_SIDE_STYLE('',(#262));
#195=DRAUGHTING_PRE_DEFINED_CURVE_FONT('continuous');
#196=COLOUR_RGB('',0.501960813999176,0.501960813999176,0.501960813999176);
#197=EDGE_LOOP('',(#263));
#198=EDGE_LOOP('',(#264));
#199=AXIS2_PLACEMENT_3D('',#265,#266,#267);
#200=SURFACE_SIDE_STYLE('',(#268));
#201=DRAUGHTING_PRE_DEFINED_CURVE_FONT('continuous');
#202=COLOUR_RGB('',0.501960813999176,0.501960813999176,0.501960813999176);
#203=EDGE_LOOP('',(#269));
#204=EDGE_LOOP('',(#270));
#205=AXIS2_PLACEMENT_3D('',#271,#272,#273);
#206=DRAUGHTING_PRE_DEFINED_CURVE_FONT('continuous');
#207=COLOUR_RGB('',0.501960813999176,0.501960813999176,0.501960813999176);
#208=CARTESIAN_POINT('',(-4.89858719658953E-016,11.5000000000001,8.0000000000002));
#209=AXIS2_PLACEMENT_3D('',#274,#275,#276);
#210=DRAUGHTING_PRE_DEFINED_CURVE_FONT('continuous');
#211=COLOUR_RGB('',0.501960813999176,0.501960813999176,0.501960813999176);
#212=CARTESIAN_POINT('',(-1.53080849893419E-015,8.00000000000002,25.0));
#213=AXIS2_PLACEMENT_3D('',#277,#278,#279);
#214=SURFACE_SIDE_STYLE('',(#280));
#215=DRAUGHTING_PRE_DEFINED_CURVE_FONT('continuous');
#216=COLOUR_RGB('',0.501960813999176,0.501960813999176,0.501960813999176);
#217=EDGE_LOOP('',(#281));
#218=EDGE_LOOP('',(#282));
#219=AXIS2_PLACEMENT_3D('',#283,#284,#285);
#220=DRAUGHTING_PRE_DEFINED_CURVE_FONT('continuous');
#221=COLOUR_RGB('',0.501960813999176,0.501960813999176,0.501960813999176);
#222=CARTESIAN_POINT('',(-6.12323399573677E-015,8.00000000000002,100.0));
#223=AXIS2_PLACEMENT_3D('',#286,#287,#288);
#224=SURFACE_SIDE_STYLE('',(#289));
#225=DRAUGHTING_PRE_DEFINED_CURVE_FONT('continuous');
#226=COLOUR_RGB('',0.501960813999176,0.501960813999176,0.501960813999176);
#227=EDGE_LOOP('',(#290));
#228=EDGE_LOOP('',(#291));
#229=AXIS2_PLACEMENT_3D('',#292,#293,#294);
#231=SURFACE_STYLE_FILL_AREA(#295);
#232=ORIENTED_EDGE('',*,*,#72,.F.);
#233=ORIENTED_EDGE('',*,*,#42,.T.);
#234=CARTESIAN_POINT('',(-6.12323399573677E-015,6.2499999999999,100.0));
#235=DIRECTION('',(-6.12323399573677E-017,-1.22464679914735E-016,1.0));
#236=DIRECTION('',(1.23259516440783E-032,-1.0,-1.22464679914735E-016));
#237=CARTESIAN_POINT('',(-6.12323399573677E-015,1.49815625729363E-014,100.0));
#238=DIRECTION('',(6.12323399573677E-017,-1.49815625729363E-016,-1.0));
#239=DIRECTION('',(4.34640859481711E-033,1.0,-1.49815625729363E-016));
#240=SURFACE_STYLE_FILL_AREA(#296);
#241=CARTESIAN_POINT('',(0.0,0.0,0.0));
#242=DIRECTION('',(6.12323399573677E-017,-1.49815625729363E-016,-1.0));
#243=DIRECTION('',(4.34640859481711E-033,1.0,-1.49815625729363E-016));
#244=SURFACE_STYLE_FILL_AREA(#297);
#245=ORIENTED_EDGE('',*,*,#42,.F.);
#246=ORIENTED_EDGE('',*,*,#47,.T.);
#247=CARTESIAN_POINT('',(-3.06161699786838E-015,7.49078128646817E-015,50.0));
#248=DIRECTION('',(6.12323399573677E-017,-1.49815625729363E-016,-1.0));
#249=DIRECTION('',(4.34640859481711E-033,1.0,-1.49815625729363E-016));
#250=CARTESIAN_POINT('',(-1.53080849893419E-015,3.74539064323409E-015,25.0));
#251=DIRECTION('',(6.12323399573677E-017,-1.49815625729363E-016,-1.0));
#252=DIRECTION('',(4.34640859481711E-033,1.0,-1.49815625729363E-016));
#253=SURFACE_STYLE_FILL_AREA(#298);
#254=ORIENTED_EDGE('',*,*,#65,.F.);
#255=ORIENTED_EDGE('',*,*,#52,.T.);
#256=CARTESIAN_POINT('',(-1.01033360929657E-015,2.47195782453451E-015,16.5000000000001));
#257=DIRECTION('',(6.12323399573677E-017,-1.49815625729363E-016,-1.0));
#258=DIRECTION('',(4.34640859481711E-033,1.0,-1.49815625729363E-016));
#259=CARTESIAN_POINT('',(0.0,0.0,0.0));
#260=DIRECTION('',(6.12323399573677E-017,-1.49815625729363E-016,-1.0));
#261=DIRECTION('',(4.34640859481711E-033,1.0,-1.49815625729363E-016));
#262=SURFACE_STYLE_FILL_AREA(#299);
#263=ORIENTED_EDGE('',*,*,#52,.F.);
#264=ORIENTED_EDGE('',*,*,#67,.T.);
#265=CARTESIAN_POINT('',(-1.53080849893419E-015,9.75000000000002,25.0));
#266=DIRECTION('',(-6.12323399573677E-017,-1.22464679914735E-016,1.0));
#267=DIRECTION('',(1.23259516440783E-032,-1.0,-1.22464679914735E-016));
#268=SURFACE_STYLE_FILL_AREA(#300);
#269=ORIENTED_EDGE('',*,*,#57,.F.);
#270=ORIENTED_EDGE('',*,*,#65,.T.);
#271=CARTESIAN_POINT('',(-2.44929359829477E-016,5.99262502917468E-016,4.0000000000001));
#272=DIRECTION('',(-6.12323399573677E-017,1.49815625729363E-016,1.0));
#273=DIRECTION('',(4.34640859481711E-033,1.0,-1.49815625729363E-016));
#274=CARTESIAN_POINT('',(-4.89858719658953E-016,1.19852500583494E-015,8.0000000000002));
#275=DIRECTION('',(6.12323399573677E-017,-1.49815625729363E-016,-1.0));
#276=DIRECTION('',(4.34640859481711E-033,1.0,-1.49815625729363E-016));
#277=CARTESIAN_POINT('',(-1.53080849893419E-015,3.74539064323409E-015,25.0));
#278=DIRECTION('',(6.12323399573677E-017,-1.49815625729363E-016,-1.0));
#279=DIRECTION('',(4.34640859481711E-033,1.0,-1.49815625729363E-016));
#280=SURFACE_STYLE_FILL_AREA(#301);
#281=ORIENTED_EDGE('',*,*,#67,.F.);
#282=ORIENTED_EDGE('',*,*,#72,.T.);
#283=CARTESIAN_POINT('',(-3.82702124733548E-015,9.36347660808521E-015,62.5));
#284=DIRECTION('',(6.12323399573677E-017,-1.49815625729363E-016,-1.0));
#285=DIRECTION('',(4.34640859481711E-033,1.0,-1.49815625729363E-016));
#286=CARTESIAN_POINT('',(-6.12323399573677E-015,1.49815625729363E-014,100.0));
#287=DIRECTION('',(6.12323399573677E-017,-1.49815625729363E-016,-1.0));
#288=DIRECTION('',(4.34640859481711E-033,1.0,-1.49815625729363E-016));
#289=SURFACE_STYLE_FILL_AREA(#302);
#290=ORIENTED_EDGE('',*,*,#47,.F.);
#291=ORIENTED_EDGE('',*,*,#57,.T.);
#292=CARTESIAN_POINT('',(0.0,6.54411906293521,0.0));
#293=DIRECTION('',(6.12323399573677E-017,1.22464679914735E-016,-1.0));
#294=DIRECTION('',(-1.23259516440783E-032,1.0,1.22464679914735E-016));
#295=FILL_AREA_STYLE('',(#303));
#296=FILL_AREA_STYLE('',(#304));
#297=FILL_AREA_STYLE('',(#305));
#298=FILL_AREA_STYLE('',(#306));
#299=FILL_AREA_STYLE('',(#307));
#300=FILL_AREA_STYLE('',(#308));
#301=FILL_AREA_STYLE('',(#309));
#302=FILL_AREA_STYLE('',(#310));
#303=FILL_AREA_STYLE_COLOUR('',#311);
#304=FILL_AREA_STYLE_COLOUR('',#312);
#305=FILL_AREA_STYLE_COLOUR('',#313);
#306=FILL_AREA_STYLE_COLOUR('',#314);
#307=FILL_AREA_STYLE_COLOUR('',#315);
#308=FILL_AREA_STYLE_COLOUR('',#316);
#309=FILL_AREA_STYLE_COLOUR('',#317);
#310=FILL_AREA_STYLE_COLOUR('',#318);
#311=COLOUR_RGB('',0.501960813999176,0.501960813999176,0.501960813999176);
#312=COLOUR_RGB('',0.501960813999176,0.501960813999176,0.501960813999176);
#313=COLOUR_RGB('',0.501960813999176,0.501960813999176,0.501960813999176);
#314=COLOUR_RGB('',0.501960813999176,0.501960813999176,0.501960813999176);
#315=COLOUR_RGB('',0.501960813999176,0.501960813999176,0.501960813999176);
#316=COLOUR_RGB('',0.501960813999176,0.501960813999176,0.501960813999176);
#317=COLOUR_RGB('',0.501960813999176,0.501960813999176,0.501960813999176);
#318=COLOUR_RGB('',0.501960813999176,0.501960813999176,0.501960813999176);
ENDSEC;
END-ISO-10303-21;
