ISO-10303-21;
HEADER;
FILE_DESCRIPTION((''),'1');
FILE_NAME('T:/00_BIG-HP\X2\FF71FF6FFF8CFF9F\X0\/2022_\X2\30C030A630F330ED30FC30C930C730FC30BF\X0\/02_STEP\X2\FF83FF9EFF70FF80\X0\/LINK\X2\7528FF83FF9EFF70FF80FF8EFF99FF80FF9E\X0\/CK\X2\FF8DFF6FFF84FF9E30FBFF71FF78FF7EFF7BFF98\X0\/10_\X2\4ED54E0A305275284E38FF8AFF9EFF72FF84FF7CFF98FF70FF7DFF9E\X0\/06_\X2\FF7BFF72FF84FF9EFF9BFF6FFF784E38FF8AFF9EFF72FF84FF8EFF99FF80FF9E\X0\/\X2\5EA76A19\X0\_\X2\5C5E6027590966F4\X0\/ST16-SL8.stp','2022-09-28T01:59:00',(''),(''),'Spatial Interop R21 SP3','Kubotek KeyCreator 2011 V10.0.2 (22737)',' ');
FILE_SCHEMA(('automotive_design'));
ENDSEC;
DATA;
#1=MECHANICAL_DESIGN_GEOMETRIC_PRESENTATION_REPRESENTATION(' ',(#10,#11,#12,#13,#14,#15,#16,#17,#18,#19,#20,#21,#22,#23,#24),#6);
#2=PRODUCT_DEFINITION_CONTEXT('',#25,'design');
#3=APPLICATION_PROTOCOL_DEFINITION('INTERNATIONAL STANDARD','automotive_design',1994,#25);
#4=PRODUCT_CATEGORY_RELATIONSHIP('NONE','NONE',#26,#27);
#5=SHAPE_DEFINITION_REPRESENTATION(#28,#29);
#6= (GEOMETRIC_REPRESENTATION_CONTEXT(3)GLOBAL_UNCERTAINTY_ASSIGNED_CONTEXT((#32))GLOBAL_UNIT_ASSIGNED_CONTEXT((#34,#35,#36))REPRESENTATION_CONTEXT('NONE','WORKSPACE'));
#10=STYLED_ITEM('',(#38,#39),#40);
#11=STYLED_ITEM('',(#41),#42);
#12=STYLED_ITEM('',(#43),#44);
#13=STYLED_ITEM('',(#45,#46),#47);
#14=STYLED_ITEM('',(#48),#49);
#15=STYLED_ITEM('',(#50,#51),#52);
#16=STYLED_ITEM('',(#53,#54),#55);
#17=STYLED_ITEM('',(#56,#57),#58);
#18=STYLED_ITEM('',(#59),#60);
#19=STYLED_ITEM('',(#61),#62);
#20=STYLED_ITEM('',(#63,#64),#65);
#21=STYLED_ITEM('',(#66,#67),#68);
#22=STYLED_ITEM('',(#69),#70);
#23=STYLED_ITEM('',(#71,#72),#73);
#24=STYLED_ITEM('',(#74),#75);
#25=APPLICATION_CONTEXT(' ');
#26=PRODUCT_CATEGORY('part','NONE');
#27=PRODUCT_RELATED_PRODUCT_CATEGORY('detail',' ',(#76));
#28=PRODUCT_DEFINITION_SHAPE('NONE','NONE',#77);
#29=ADVANCED_BREP_SHAPE_REPRESENTATION('240[2]',(#73,#78),#6);
#32=UNCERTAINTY_MEASURE_WITH_UNIT(LENGTH_MEASURE(1.0E-006),#34,'','');
#34= (CONVERSION_BASED_UNIT('MILLIMETRE',#81)LENGTH_UNIT()NAMED_UNIT(#84));
#35= (NAMED_UNIT(#86)PLANE_ANGLE_UNIT()SI_UNIT($,.RADIAN.));
#36= (NAMED_UNIT(#86)SOLID_ANGLE_UNIT()SI_UNIT($,.STERADIAN.));
#38=PRESENTATION_STYLE_ASSIGNMENT((#92));
#39=PRESENTATION_STYLE_ASSIGNMENT((#93));
#40=ADVANCED_FACE('240[2]',(#94,#95),#96,.T.);
#41=PRESENTATION_STYLE_ASSIGNMENT((#97));
#42=EDGE_CURVE('240[2]',#98,#98,#99,.T.);
#43=PRESENTATION_STYLE_ASSIGNMENT((#100));
#44=EDGE_CURVE('240[2]',#101,#101,#102,.T.);
#45=PRESENTATION_STYLE_ASSIGNMENT((#103));
#46=PRESENTATION_STYLE_ASSIGNMENT((#104));
#47=ADVANCED_FACE('240[2]',(#105,#106),#107,.T.);
#48=PRESENTATION_STYLE_ASSIGNMENT((#108));
#49=EDGE_CURVE('240[2]',#109,#109,#110,.F.);
#50=PRESENTATION_STYLE_ASSIGNMENT((#111));
#51=PRESENTATION_STYLE_ASSIGNMENT((#112));
#52=ADVANCED_FACE('240[2]',(#113,#114),#115,.T.);
#53=PRESENTATION_STYLE_ASSIGNMENT((#116));
#54=PRESENTATION_STYLE_ASSIGNMENT((#117));
#55=ADVANCED_FACE('240[2]',(#118,#119),#120,.T.);
#56=PRESENTATION_STYLE_ASSIGNMENT((#121));
#57=PRESENTATION_STYLE_ASSIGNMENT((#122));
#58=ADVANCED_FACE('240[2]',(#123,#124),#125,.F.);
#59=PRESENTATION_STYLE_ASSIGNMENT((#126));
#60=EDGE_CURVE('240[2]',#127,#127,#128,.T.);
#61=PRESENTATION_STYLE_ASSIGNMENT((#129));
#62=EDGE_CURVE('240[2]',#130,#130,#131,.T.);
#63=PRESENTATION_STYLE_ASSIGNMENT((#132));
#64=PRESENTATION_STYLE_ASSIGNMENT((#133));
#65=ADVANCED_FACE('240[2]',(#134,#135),#136,.T.);
#66=PRESENTATION_STYLE_ASSIGNMENT((#137));
#67=PRESENTATION_STYLE_ASSIGNMENT((#138));
#68=ADVANCED_FACE('240[2]',(#139,#140),#141,.T.);
#69=PRESENTATION_STYLE_ASSIGNMENT((#142));
#70=EDGE_CURVE('240[2]',#143,#143,#144,.T.);
#71=PRESENTATION_STYLE_ASSIGNMENT((#145));
#72=PRESENTATION_STYLE_ASSIGNMENT((#146));
#73=MANIFOLD_SOLID_BREP('240[2]',#147);
#74=PRESENTATION_STYLE_ASSIGNMENT((#148));
#75=EDGE_CURVE('240[2]',#149,#149,#150,.T.);
#76=PRODUCT('240[2]','240[2]','PART-240[2]-DESC',(#151));
#77=PRODUCT_DEFINITION('NONE','NONE',#152,#2);
#78=AXIS2_PLACEMENT_3D('',#153,#154,#155);
#81=LENGTH_MEASURE_WITH_UNIT(LENGTH_MEASURE(1.0),#156);
#84=DIMENSIONAL_EXPONENTS(1.0,0.0,0.0,0.0,0.0,0.0,0.0);
#86=DIMENSIONAL_EXPONENTS(0.0,0.0,0.0,0.0,0.0,0.0,0.0);
#92=SURFACE_STYLE_USAGE(.BOTH.,#157);
#93=CURVE_STYLE('',#158,POSITIVE_LENGTH_MEASURE(1000.0),#159);
#94=FACE_OUTER_BOUND('',#160,.T.);
#95=FACE_BOUND('',#161,.T.);
#96=PLANE('',#162);
#97=CURVE_STYLE('',#163,POSITIVE_LENGTH_MEASURE(1000.0),#164);
#98=VERTEX_POINT('',#165);
#99=CIRCLE('',#166,4.0);
#100=CURVE_STYLE('',#167,POSITIVE_LENGTH_MEASURE(1000.0),#168);
#101=VERTEX_POINT('',#169);
#102=CIRCLE('',#170,11.0);
#103=SURFACE_STYLE_USAGE(.BOTH.,#171);
#104=CURVE_STYLE('',#172,POSITIVE_LENGTH_MEASURE(1000.0),#173);
#105=FACE_BOUND('',#174,.T.);
#106=FACE_OUTER_BOUND('',#175,.T.);
#107=PLANE('',#176);
#108=CURVE_STYLE('',#177,POSITIVE_LENGTH_MEASURE(1000.0),#178);
#109=VERTEX_POINT('',#179);
#110=CIRCLE('',#180,7.99999999999999);
#111=SURFACE_STYLE_USAGE(.BOTH.,#181);
#112=CURVE_STYLE('',#182,POSITIVE_LENGTH_MEASURE(1000.0),#183);
#113=FACE_BOUND('',#184,.T.);
#114=FACE_OUTER_BOUND('',#185,.T.);
#115=PLANE('',#186);
#116=SURFACE_STYLE_USAGE(.BOTH.,#187);
#117=CURVE_STYLE('',#188,POSITIVE_LENGTH_MEASURE(1000.0),#189);
#118=FACE_BOUND('',#190,.T.);
#119=FACE_BOUND('',#191,.T.);
#120=CYLINDRICAL_SURFACE('',#192,11.0);
#121=SURFACE_STYLE_USAGE(.BOTH.,#193);
#122=CURVE_STYLE('',#194,POSITIVE_LENGTH_MEASURE(1000.0),#195);
#123=FACE_BOUND('',#196,.T.);
#124=FACE_BOUND('',#197,.T.);
#125=CYLINDRICAL_SURFACE('',#198,4.0);
#126=CURVE_STYLE('',#199,POSITIVE_LENGTH_MEASURE(1000.0),#200);
#127=VERTEX_POINT('',#201);
#128=CIRCLE('',#202,11.0);
#129=CURVE_STYLE('',#203,POSITIVE_LENGTH_MEASURE(1000.0),#204);
#130=VERTEX_POINT('',#205);
#131=CIRCLE('',#206,7.99999999999999);
#132=SURFACE_STYLE_USAGE(.BOTH.,#207);
#133=CURVE_STYLE('',#208,POSITIVE_LENGTH_MEASURE(1000.0),#209);
#134=FACE_BOUND('',#210,.T.);
#135=FACE_BOUND('',#211,.T.);
#136=CONICAL_SURFACE('',#212,8.08823812587037,0.349065850398867);
#137=SURFACE_STYLE_USAGE(.BOTH.,#213);
#138=CURVE_STYLE('',#214,POSITIVE_LENGTH_MEASURE(1000.0),#215);
#139=FACE_BOUND('',#216,.T.);
#140=FACE_BOUND('',#217,.T.);
#141=CYLINDRICAL_SURFACE('',#218,7.99999999999999);
#142=CURVE_STYLE('',#219,POSITIVE_LENGTH_MEASURE(1000.0),#220);
#143=VERTEX_POINT('',#221);
#144=CIRCLE('',#222,4.0);
#145=SURFACE_STYLE_USAGE(.BOTH.,#223);
#146=CURVE_STYLE('',#224,POSITIVE_LENGTH_MEASURE(1000.0),#225);
#147=CLOSED_SHELL('',(#58,#40,#47,#55,#68,#65,#52));
#148=CURVE_STYLE('',#226,POSITIVE_LENGTH_MEASURE(1000.0),#227);
#149=VERTEX_POINT('',#228);
#150=CIRCLE('',#229,8.08823812587037);
#151=PRODUCT_CONTEXT('',#25,'mechanical');
#152=PRODUCT_DEFINITION_FORMATION_WITH_SPECIFIED_SOURCE(' ','NONE',#76,.NOT_KNOWN.);
#153=CARTESIAN_POINT('',(0.0,0.0,0.0));
#154=DIRECTION('',(0.0,0.0,1.0));
#155=DIRECTION('',(1.0,0.0,0.0));
#156= (NAMED_UNIT(#84)LENGTH_UNIT()SI_UNIT(.MILLI.,.METRE.));
#157=SURFACE_SIDE_STYLE('',(#231));
#158=DRAUGHTING_PRE_DEFINED_CURVE_FONT('continuous');
#159=COLOUR_RGB('',0.501960813999176,0.501960813999176,0.501960813999176);
#160=EDGE_LOOP('',(#232));
#161=EDGE_LOOP('',(#233));
#162=AXIS2_PLACEMENT_3D('',#234,#235,#236);
#163=DRAUGHTING_PRE_DEFINED_CURVE_FONT('continuous');
#164=COLOUR_RGB('',0.501960813999176,0.501960813999176,0.501960813999176);
#165=CARTESIAN_POINT('',(4.0,0.0,0.0));
#166=AXIS2_PLACEMENT_3D('',#237,#238,#239);
#167=DRAUGHTING_PRE_DEFINED_CURVE_FONT('continuous');
#168=COLOUR_RGB('',0.501960813999176,0.501960813999176,0.501960813999176);
#169=CARTESIAN_POINT('',(11.0,-3.06183944715575E-016,8.0));
#170=AXIS2_PLACEMENT_3D('',#240,#241,#242);
#171=SURFACE_SIDE_STYLE('',(#243));
#172=DRAUGHTING_PRE_DEFINED_CURVE_FONT('continuous');
#173=COLOUR_RGB('',0.501960813999176,0.501960813999176,0.501960813999176);
#174=EDGE_LOOP('',(#244));
#175=EDGE_LOOP('',(#245));
#176=AXIS2_PLACEMENT_3D('',#246,#247,#248);
#177=DRAUGHTING_PRE_DEFINED_CURVE_FONT('continuous');
#178=COLOUR_RGB('',0.501960813999176,0.501960813999176,0.501960813999176);
#179=CARTESIAN_POINT('',(-5.51123415876291E-016,-7.99999999999999,25.0));
#180=AXIS2_PLACEMENT_3D('',#249,#250,#251);
#181=SURFACE_SIDE_STYLE('',(#252));
#182=DRAUGHTING_PRE_DEFINED_CURVE_FONT('continuous');
#183=COLOUR_RGB('',0.501960813999176,0.501960813999176,0.501960813999176);
#184=EDGE_LOOP('',(#253));
#185=EDGE_LOOP('',(#254));
#186=AXIS2_PLACEMENT_3D('',#255,#256,#257);
#187=SURFACE_SIDE_STYLE('',(#258));
#188=DRAUGHTING_PRE_DEFINED_CURVE_FONT('continuous');
#189=COLOUR_RGB('',0.501960813999176,0.501960813999176,0.501960813999176);
#190=EDGE_LOOP('',(#259));
#191=EDGE_LOOP('',(#260));
#192=AXIS2_PLACEMENT_3D('',#261,#262,#263);
#193=SURFACE_SIDE_STYLE('',(#264));
#194=DRAUGHTING_PRE_DEFINED_CURVE_FONT('continuous');
#195=COLOUR_RGB('',0.501960813999176,0.501960813999176,0.501960813999176);
#196=EDGE_LOOP('',(#265));
#197=EDGE_LOOP('',(#266));
#198=AXIS2_PLACEMENT_3D('',#267,#268,#269);
#199=DRAUGHTING_PRE_DEFINED_CURVE_FONT('continuous');
#200=COLOUR_RGB('',0.501960813999176,0.501960813999176,0.501960813999176);
#201=CARTESIAN_POINT('',(-9.69535971483266,-5.19615242270664,25.0));
#202=AXIS2_PLACEMENT_3D('',#270,#271,#272);
#203=DRAUGHTING_PRE_DEFINED_CURVE_FONT('continuous');
#204=COLOUR_RGB('',0.501960813999176,0.501960813999176,0.501960813999176);
#205=CARTESIAN_POINT('',(-8.0,-8.20391177114408E-015,100.0));
#206=AXIS2_PLACEMENT_3D('',#273,#274,#275);
#207=SURFACE_SIDE_STYLE('',(#276));
#208=DRAUGHTING_PRE_DEFINED_CURVE_FONT('continuous');
#209=COLOUR_RGB('',0.501960813999176,0.501960813999176,0.501960813999176);
#210=EDGE_LOOP('',(#277));
#211=EDGE_LOOP('',(#278));
#212=AXIS2_PLACEMENT_3D('',#279,#280,#281);
#213=SURFACE_SIDE_STYLE('',(#282));
#214=DRAUGHTING_PRE_DEFINED_CURVE_FONT('continuous');
#215=COLOUR_RGB('',0.501960813999176,0.501960813999176,0.501960813999176);
#216=EDGE_LOOP('',(#283));
#217=EDGE_LOOP('',(#284));
#218=AXIS2_PLACEMENT_3D('',#285,#286,#287);
#219=DRAUGHTING_PRE_DEFINED_CURVE_FONT('continuous');
#220=COLOUR_RGB('',0.501960813999176,0.501960813999176,0.501960813999176);
#221=CARTESIAN_POINT('',(4.0,0.0,100.0));
#222=AXIS2_PLACEMENT_3D('',#288,#289,#290);
#223=SURFACE_SIDE_STYLE('',(#291));
#224=DRAUGHTING_PRE_DEFINED_CURVE_FONT('continuous');
#225=COLOUR_RGB('',0.501960813999176,0.501960813999176,0.501960813999176);
#226=DRAUGHTING_PRE_DEFINED_CURVE_FONT('continuous');
#227=COLOUR_RGB('',0.501960813999176,0.501960813999176,0.501960813999176);
#228=CARTESIAN_POINT('',(7.90060731721195,1.73205080756887,6.9588772086217E-016));
#229=AXIS2_PLACEMENT_3D('',#292,#293,#294);
#231=SURFACE_STYLE_FILL_AREA(#295);
#232=ORIENTED_EDGE('',*,*,#60,.T.);
#233=ORIENTED_EDGE('',*,*,#49,.T.);
#234=CARTESIAN_POINT('',(8.5,-3.06161699786838E-015,25.0));
#235=DIRECTION('',(-9.18338008663382E-049,-1.22464679914735E-016,1.0));
#236=DIRECTION('',(1.0,-7.49879891330927E-033,0.0));
#237=CARTESIAN_POINT('',(0.0,0.0,2.44929359829471E-016));
#238=DIRECTION('',(-6.12323399573677E-017,-1.22464679914735E-016,1.0));
#239=DIRECTION('',(1.0,-7.49879891330927E-033,6.12323399573677E-017));
#240=CARTESIAN_POINT('',(-4.89858719658941E-016,-9.79717439317882E-016,8.0));
#241=DIRECTION('',(6.12323399573677E-017,1.22464679914735E-016,-1.0));
#242=DIRECTION('',(-1.23259516440783E-032,1.0,1.22464679914735E-016));
#243=SURFACE_STYLE_FILL_AREA(#296);
#244=ORIENTED_EDGE('',*,*,#42,.T.);
#245=ORIENTED_EDGE('',*,*,#75,.F.);
#246=CARTESIAN_POINT('',(4.0,1.93086109230761E-032,2.44929359829471E-016));
#247=DIRECTION('',(6.12323399573677E-017,1.22464679914735E-016,-1.0));
#248=DIRECTION('',(-1.0,0.0,-6.12323399573677E-017));
#249=CARTESIAN_POINT('',(-1.53080849893419E-015,-3.06161699786838E-015,25.0));
#250=DIRECTION('',(-6.12323399573677E-017,-1.22464679914735E-016,1.0));
#251=DIRECTION('',(-1.23259516440783E-032,1.0,1.22464679914735E-016));
#252=SURFACE_STYLE_FILL_AREA(#297);
#253=ORIENTED_EDGE('',*,*,#70,.T.);
#254=ORIENTED_EDGE('',*,*,#62,.T.);
#255=CARTESIAN_POINT('',(7.99999999999998,-1.22464679914735E-014,100.0));
#256=DIRECTION('',(-9.18338008663382E-049,-1.22464679914735E-016,1.0));
#257=DIRECTION('',(1.0,-7.49879891330927E-033,0.0));
#258=SURFACE_STYLE_FILL_AREA(#298);
#259=ORIENTED_EDGE('',*,*,#44,.F.);
#260=ORIENTED_EDGE('',*,*,#60,.F.);
#261=CARTESIAN_POINT('',(1.32629271232236E-016,2.65258542464473E-016,-2.16600037373352));
#262=DIRECTION('',(6.12323399573677E-017,1.22464679914735E-016,-1.0));
#263=DIRECTION('',(-1.23259516440783E-032,1.0,1.22464679914735E-016));
#264=SURFACE_STYLE_FILL_AREA(#299);
#265=ORIENTED_EDGE('',*,*,#70,.F.);
#266=ORIENTED_EDGE('',*,*,#42,.F.);
#267=CARTESIAN_POINT('',(0.0,0.0,0.0));
#268=DIRECTION('',(0.0,0.0,1.0));
#269=DIRECTION('',(1.0,0.0,0.0));
#270=CARTESIAN_POINT('',(-1.53080849893419E-015,-3.06161699786838E-015,25.0));
#271=DIRECTION('',(-6.12323399573677E-017,-1.22464679914735E-016,1.0));
#272=DIRECTION('',(-1.23259516440783E-032,1.0,1.22464679914735E-016));
#273=CARTESIAN_POINT('',(-6.12323399573677E-015,-1.22464679914735E-014,100.0));
#274=DIRECTION('',(-6.12323399573677E-017,-1.22464679914735E-016,1.0));
#275=DIRECTION('',(-1.23259516440783E-032,1.0,1.22464679914735E-016));
#276=SURFACE_STYLE_FILL_AREA(#300);
#277=ORIENTED_EDGE('',*,*,#75,.T.);
#278=ORIENTED_EDGE('',*,*,#44,.T.);
#279=CARTESIAN_POINT('',(0.0,0.0,0.0));
#280=DIRECTION('',(-6.12323399573677E-017,-1.22464679914735E-016,1.0));
#281=DIRECTION('',(1.23259516440783E-032,-1.0,-1.22464679914735E-016));
#282=SURFACE_STYLE_FILL_AREA(#301);
#283=ORIENTED_EDGE('',*,*,#62,.F.);
#284=ORIENTED_EDGE('',*,*,#49,.F.);
#285=CARTESIAN_POINT('',(1.32629271232236E-016,2.65258542464473E-016,-2.16600037373352));
#286=DIRECTION('',(6.12323399573677E-017,1.22464679914735E-016,-1.0));
#287=DIRECTION('',(-1.23259516440783E-032,1.0,1.22464679914735E-016));
#288=CARTESIAN_POINT('',(0.0,0.0,100.0));
#289=DIRECTION('',(9.18338008663382E-049,1.22464679914735E-016,-1.0));
#290=DIRECTION('',(1.0,-1.12463970284496E-064,9.18338008663382E-049));
#291=SURFACE_STYLE_FILL_AREA(#302);
#292=CARTESIAN_POINT('',(0.0,0.0,0.0));
#293=DIRECTION('',(-6.12323399573677E-017,-1.22464679914735E-016,1.0));
#294=DIRECTION('',(1.23259516440783E-032,-1.0,-1.22464679914735E-016));
#295=FILL_AREA_STYLE('',(#303));
#296=FILL_AREA_STYLE('',(#304));
#297=FILL_AREA_STYLE('',(#305));
#298=FILL_AREA_STYLE('',(#306));
#299=FILL_AREA_STYLE('',(#307));
#300=FILL_AREA_STYLE('',(#308));
#301=FILL_AREA_STYLE('',(#309));
#302=FILL_AREA_STYLE('',(#310));
#303=FILL_AREA_STYLE_COLOUR('',#311);
#304=FILL_AREA_STYLE_COLOUR('',#312);
#305=FILL_AREA_STYLE_COLOUR('',#313);
#306=FILL_AREA_STYLE_COLOUR('',#314);
#307=FILL_AREA_STYLE_COLOUR('',#315);
#308=FILL_AREA_STYLE_COLOUR('',#316);
#309=FILL_AREA_STYLE_COLOUR('',#317);
#310=FILL_AREA_STYLE_COLOUR('',#318);
#311=COLOUR_RGB('',0.501960813999176,0.501960813999176,0.501960813999176);
#312=COLOUR_RGB('',0.501960813999176,0.501960813999176,0.501960813999176);
#313=COLOUR_RGB('',0.501960813999176,0.501960813999176,0.501960813999176);
#314=COLOUR_RGB('',0.501960813999176,0.501960813999176,0.501960813999176);
#315=COLOUR_RGB('',0.501960813999176,0.501960813999176,0.501960813999176);
#316=COLOUR_RGB('',0.501960813999176,0.501960813999176,0.501960813999176);
#317=COLOUR_RGB('',0.501960813999176,0.501960813999176,0.501960813999176);
#318=COLOUR_RGB('',0.501960813999176,0.501960813999176,0.501960813999176);
ENDSEC;
END-ISO-10303-21;
