ISO-10303-21;
HEADER;
FILE_DESCRIPTION((''),'1');
FILE_NAME('T:/02_3D_Field-HP\X2\FF71FF6FFF8CFF9F5916\X0\/02_Step_Field-HP\X2\FF71FF6FFF8CFF9F5916\X0\/21_CK\X2\FF8EFF9EFF70FF98FF9DFF78FF9EFF7CFF7DFF83FF91\X0\/08_\X2\FF7BFF72FF84FF9EFF9BFF6FFF784E38FF8AFF9EFF72FF84FF8EFF99FF80FF9E\X0\+\X2\4E38FF8AFF9EFF72FF84FF7CFF6CFF9DFF78\X0\/\X2\8FFD52A05206\X0\_20230904/ST16-SL7.stp','2023-09-04T02:07:02',(''),(''),'Spatial Interop R21 SP3','Kubotek KeyCreator 2011 V10.0.2 (22737)',' ');
FILE_SCHEMA(('automotive_design'));
ENDSEC;
DATA;
#1=MECHANICAL_DESIGN_GEOMETRIC_PRESENTATION_REPRESENTATION(' ',(#10,#11,#12,#13,#14,#15,#16,#17,#18,#19,#20,#21,#22,#23,#24),#6);
#2=PRODUCT_DEFINITION_CONTEXT('',#25,'design');
#3=APPLICATION_PROTOCOL_DEFINITION('INTERNATIONAL STANDARD','automotive_design',1994,#25);
#4=PRODUCT_CATEGORY_RELATIONSHIP('NONE','NONE',#26,#27);
#5=SHAPE_DEFINITION_REPRESENTATION(#28,#29);
#6= (GEOMETRIC_REPRESENTATION_CONTEXT(3)GLOBAL_UNCERTAINTY_ASSIGNED_CONTEXT((#32))GLOBAL_UNIT_ASSIGNED_CONTEXT((#34,#35,#36))REPRESENTATION_CONTEXT('NONE','WORKSPACE'));
#10=STYLED_ITEM('',(#38,#39),#40);
#11=STYLED_ITEM('',(#41,#42),#43);
#12=STYLED_ITEM('',(#44,#45),#46);
#13=STYLED_ITEM('',(#47,#48),#49);
#14=STYLED_ITEM('',(#50),#51);
#15=STYLED_ITEM('',(#52,#53),#54);
#16=STYLED_ITEM('',(#55),#56);
#17=STYLED_ITEM('',(#57),#58);
#18=STYLED_ITEM('',(#59,#60),#61);
#19=STYLED_ITEM('',(#62),#63);
#20=STYLED_ITEM('',(#64,#65),#66);
#21=STYLED_ITEM('',(#67),#68);
#22=STYLED_ITEM('',(#69),#70);
#23=STYLED_ITEM('',(#71),#72);
#24=STYLED_ITEM('',(#73,#74),#75);
#25=APPLICATION_CONTEXT(' ');
#26=PRODUCT_CATEGORY('part','NONE');
#27=PRODUCT_RELATED_PRODUCT_CATEGORY('detail',' ',(#76));
#28=PRODUCT_DEFINITION_SHAPE('NONE','NONE',#77);
#29=ADVANCED_BREP_SHAPE_REPRESENTATION('240[2]',(#46,#78),#6);
#32=UNCERTAINTY_MEASURE_WITH_UNIT(LENGTH_MEASURE(1.0E-006),#34,'','');
#34= (CONVERSION_BASED_UNIT('MILLIMETRE',#81)LENGTH_UNIT()NAMED_UNIT(#84));
#35= (NAMED_UNIT(#86)PLANE_ANGLE_UNIT()SI_UNIT($,.RADIAN.));
#36= (NAMED_UNIT(#86)SOLID_ANGLE_UNIT()SI_UNIT($,.STERADIAN.));
#38=PRESENTATION_STYLE_ASSIGNMENT((#92));
#39=PRESENTATION_STYLE_ASSIGNMENT((#93));
#40=ADVANCED_FACE('240[2]',(#94,#95),#96,.T.);
#41=PRESENTATION_STYLE_ASSIGNMENT((#97));
#42=PRESENTATION_STYLE_ASSIGNMENT((#98));
#43=ADVANCED_FACE('240[2]',(#99,#100),#101,.T.);
#44=PRESENTATION_STYLE_ASSIGNMENT((#102));
#45=PRESENTATION_STYLE_ASSIGNMENT((#103));
#46=MANIFOLD_SOLID_BREP('240[2]',#104);
#47=PRESENTATION_STYLE_ASSIGNMENT((#105));
#48=PRESENTATION_STYLE_ASSIGNMENT((#106));
#49=ADVANCED_FACE('240[2]',(#107,#108),#109,.T.);
#50=PRESENTATION_STYLE_ASSIGNMENT((#110));
#51=EDGE_CURVE('240[2]',#111,#111,#112,.T.);
#52=PRESENTATION_STYLE_ASSIGNMENT((#113));
#53=PRESENTATION_STYLE_ASSIGNMENT((#114));
#54=ADVANCED_FACE('240[2]',(#115,#116),#117,.T.);
#55=PRESENTATION_STYLE_ASSIGNMENT((#118));
#56=EDGE_CURVE('240[2]',#119,#119,#120,.T.);
#57=PRESENTATION_STYLE_ASSIGNMENT((#121));
#58=EDGE_CURVE('240[2]',#122,#122,#123,.T.);
#59=PRESENTATION_STYLE_ASSIGNMENT((#124));
#60=PRESENTATION_STYLE_ASSIGNMENT((#125));
#61=ADVANCED_FACE('240[2]',(#126,#127),#128,.T.);
#62=PRESENTATION_STYLE_ASSIGNMENT((#129));
#63=EDGE_CURVE('240[2]',#130,#130,#131,.T.);
#64=PRESENTATION_STYLE_ASSIGNMENT((#132));
#65=PRESENTATION_STYLE_ASSIGNMENT((#133));
#66=ADVANCED_FACE('240[2]',(#134,#135),#136,.F.);
#67=PRESENTATION_STYLE_ASSIGNMENT((#137));
#68=EDGE_CURVE('240[2]',#138,#138,#139,.T.);
#69=PRESENTATION_STYLE_ASSIGNMENT((#140));
#70=EDGE_CURVE('240[2]',#141,#141,#142,.T.);
#71=PRESENTATION_STYLE_ASSIGNMENT((#143));
#72=EDGE_CURVE('240[2]',#144,#144,#145,.T.);
#73=PRESENTATION_STYLE_ASSIGNMENT((#146));
#74=PRESENTATION_STYLE_ASSIGNMENT((#147));
#75=ADVANCED_FACE('240[2]',(#148,#149),#150,.T.);
#76=PRODUCT('240[2]','240[2]','PART-240[2]-DESC',(#151));
#77=PRODUCT_DEFINITION('NONE','NONE',#152,#2);
#78=AXIS2_PLACEMENT_3D('',#153,#154,#155);
#81=LENGTH_MEASURE_WITH_UNIT(LENGTH_MEASURE(1.0),#156);
#84=DIMENSIONAL_EXPONENTS(1.0,0.0,0.0,0.0,0.0,0.0,0.0);
#86=DIMENSIONAL_EXPONENTS(0.0,0.0,0.0,0.0,0.0,0.0,0.0);
#92=SURFACE_STYLE_USAGE(.BOTH.,#157);
#93=CURVE_STYLE('',#158,POSITIVE_LENGTH_MEASURE(1000.0),#159);
#94=FACE_OUTER_BOUND('',#160,.T.);
#95=FACE_BOUND('',#161,.T.);
#96=PLANE('',#162);
#97=SURFACE_STYLE_USAGE(.BOTH.,#163);
#98=CURVE_STYLE('',#164,POSITIVE_LENGTH_MEASURE(1000.0),#165);
#99=FACE_BOUND('',#166,.T.);
#100=FACE_BOUND('',#167,.T.);
#101=CYLINDRICAL_SURFACE('',#168,8.00000000000001);
#102=SURFACE_STYLE_USAGE(.BOTH.,#169);
#103=CURVE_STYLE('',#170,POSITIVE_LENGTH_MEASURE(1000.0),#171);
#104=CLOSED_SHELL('',(#75,#43,#40,#54,#61,#49,#66));
#105=SURFACE_STYLE_USAGE(.BOTH.,#172);
#106=CURVE_STYLE('',#173,POSITIVE_LENGTH_MEASURE(1000.0),#174);
#107=FACE_BOUND('',#175,.T.);
#108=FACE_OUTER_BOUND('',#176,.T.);
#109=PLANE('',#177);
#110=CURVE_STYLE('',#178,POSITIVE_LENGTH_MEASURE(1000.0),#179);
#111=VERTEX_POINT('',#180);
#112=CIRCLE('',#181,10.5);
#113=SURFACE_STYLE_USAGE(.BOTH.,#182);
#114=CURVE_STYLE('',#183,POSITIVE_LENGTH_MEASURE(1000.0),#184);
#115=FACE_BOUND('',#185,.T.);
#116=FACE_BOUND('',#186,.T.);
#117=CYLINDRICAL_SURFACE('',#187,10.5);
#118=CURVE_STYLE('',#188,POSITIVE_LENGTH_MEASURE(1000.0),#189);
#119=VERTEX_POINT('',#190);
#120=CIRCLE('',#191,3.50000000000004);
#121=CURVE_STYLE('',#192,POSITIVE_LENGTH_MEASURE(1000.0),#193);
#122=VERTEX_POINT('',#194);
#123=CIRCLE('',#195,3.50000000000035);
#124=SURFACE_STYLE_USAGE(.BOTH.,#196);
#125=CURVE_STYLE('',#197,POSITIVE_LENGTH_MEASURE(1000.0),#198);
#126=FACE_BOUND('',#199,.T.);
#127=FACE_BOUND('',#200,.T.);
#128=CONICAL_SURFACE('',#201,9.04411906293517,0.349065850398868);
#129=CURVE_STYLE('',#202,POSITIVE_LENGTH_MEASURE(1000.0),#203);
#130=VERTEX_POINT('',#204);
#131=CIRCLE('',#205,7.58823812587035);
#132=SURFACE_STYLE_USAGE(.BOTH.,#206);
#133=CURVE_STYLE('',#207,POSITIVE_LENGTH_MEASURE(1000.0),#208);
#134=FACE_BOUND('',#209,.T.);
#135=FACE_BOUND('',#210,.T.);
#136=CYLINDRICAL_SURFACE('',#211,3.5000000000002);
#137=CURVE_STYLE('',#212,POSITIVE_LENGTH_MEASURE(1000.0),#213);
#138=VERTEX_POINT('',#214);
#139=CIRCLE('',#215,10.5);
#140=CURVE_STYLE('',#216,POSITIVE_LENGTH_MEASURE(1000.0),#217);
#141=VERTEX_POINT('',#218);
#142=CIRCLE('',#219,8.0);
#143=CURVE_STYLE('',#220,POSITIVE_LENGTH_MEASURE(1000.0),#221);
#144=VERTEX_POINT('',#222);
#145=CIRCLE('',#223,8.00000000000002);
#146=SURFACE_STYLE_USAGE(.BOTH.,#224);
#147=CURVE_STYLE('',#225,POSITIVE_LENGTH_MEASURE(1000.0),#226);
#148=FACE_OUTER_BOUND('',#227,.T.);
#149=FACE_BOUND('',#228,.T.);
#150=PLANE('',#229);
#151=PRODUCT_CONTEXT('',#25,'mechanical');
#152=PRODUCT_DEFINITION_FORMATION_WITH_SPECIFIED_SOURCE(' ','NONE',#76,.NOT_KNOWN.);
#153=CARTESIAN_POINT('',(0.0,0.0,0.0));
#154=DIRECTION('',(0.0,0.0,1.0));
#155=DIRECTION('',(1.0,0.0,0.0));
#156= (NAMED_UNIT(#84)LENGTH_UNIT()SI_UNIT(.MILLI.,.METRE.));
#157=SURFACE_SIDE_STYLE('',(#231));
#158=DRAUGHTING_PRE_DEFINED_CURVE_FONT('continuous');
#159=COLOUR_RGB('',0.501960813999176,0.501960813999176,0.501960813999176);
#160=EDGE_LOOP('',(#232));
#161=EDGE_LOOP('',(#233));
#162=AXIS2_PLACEMENT_3D('',#234,#235,#236);
#163=SURFACE_SIDE_STYLE('',(#237));
#164=DRAUGHTING_PRE_DEFINED_CURVE_FONT('continuous');
#165=COLOUR_RGB('',0.501960813999176,0.501960813999176,0.501960813999176);
#166=EDGE_LOOP('',(#238));
#167=EDGE_LOOP('',(#239));
#168=AXIS2_PLACEMENT_3D('',#240,#241,#242);
#169=SURFACE_SIDE_STYLE('',(#243));
#170=DRAUGHTING_PRE_DEFINED_CURVE_FONT('continuous');
#171=COLOUR_RGB('',0.501960813999176,0.501960813999176,0.501960813999176);
#172=SURFACE_SIDE_STYLE('',(#244));
#173=DRAUGHTING_PRE_DEFINED_CURVE_FONT('continuous');
#174=COLOUR_RGB('',0.501960813999176,0.501960813999176,0.501960813999176);
#175=EDGE_LOOP('',(#245));
#176=EDGE_LOOP('',(#246));
#177=AXIS2_PLACEMENT_3D('',#247,#248,#249);
#178=DRAUGHTING_PRE_DEFINED_CURVE_FONT('continuous');
#179=COLOUR_RGB('',0.501960813999176,0.501960813999176,0.501960813999176);
#180=CARTESIAN_POINT('',(-4.89858719658941E-016,10.5,7.99999999999999));
#181=AXIS2_PLACEMENT_3D('',#250,#251,#252);
#182=SURFACE_SIDE_STYLE('',(#253));
#183=DRAUGHTING_PRE_DEFINED_CURVE_FONT('continuous');
#184=COLOUR_RGB('',0.501960813999176,0.501960813999176,0.501960813999176);
#185=EDGE_LOOP('',(#254));
#186=EDGE_LOOP('',(#255));
#187=AXIS2_PLACEMENT_3D('',#256,#257,#258);
#188=DRAUGHTING_PRE_DEFINED_CURVE_FONT('continuous');
#189=COLOUR_RGB('',0.501960813999176,0.501960813999176,0.501960813999176);
#190=CARTESIAN_POINT('',(0.0,3.50000000000004,0.0));
#191=AXIS2_PLACEMENT_3D('',#259,#260,#261);
#192=DRAUGHTING_PRE_DEFINED_CURVE_FONT('continuous');
#193=COLOUR_RGB('',0.501960813999176,0.501960813999176,0.501960813999176);
#194=CARTESIAN_POINT('',(-6.12323399573677E-015,3.50000000000036,100.0));
#195=AXIS2_PLACEMENT_3D('',#262,#263,#264);
#196=SURFACE_SIDE_STYLE('',(#265));
#197=DRAUGHTING_PRE_DEFINED_CURVE_FONT('continuous');
#198=COLOUR_RGB('',0.501960813999176,0.501960813999176,0.501960813999176);
#199=EDGE_LOOP('',(#266));
#200=EDGE_LOOP('',(#267));
#201=AXIS2_PLACEMENT_3D('',#268,#269,#270);
#202=DRAUGHTING_PRE_DEFINED_CURVE_FONT('continuous');
#203=COLOUR_RGB('',0.501960813999176,0.501960813999176,0.501960813999176);
#204=CARTESIAN_POINT('',(0.0,7.58823812587035,0.0));
#205=AXIS2_PLACEMENT_3D('',#271,#272,#273);
#206=SURFACE_SIDE_STYLE('',(#274));
#207=DRAUGHTING_PRE_DEFINED_CURVE_FONT('continuous');
#208=COLOUR_RGB('',0.501960813999176,0.501960813999176,0.501960813999176);
#209=EDGE_LOOP('',(#275));
#210=EDGE_LOOP('',(#276));
#211=AXIS2_PLACEMENT_3D('',#277,#278,#279);
#212=DRAUGHTING_PRE_DEFINED_CURVE_FONT('continuous');
#213=COLOUR_RGB('',0.501960813999176,0.501960813999176,0.501960813999176);
#214=CARTESIAN_POINT('',(-1.53080849893419E-015,10.5,24.9999999999999));
#215=AXIS2_PLACEMENT_3D('',#280,#281,#282);
#216=DRAUGHTING_PRE_DEFINED_CURVE_FONT('continuous');
#217=COLOUR_RGB('',0.501960813999176,0.501960813999176,0.501960813999176);
#218=CARTESIAN_POINT('',(-6.12323399573677E-015,8.00000000000002,100.0));
#219=AXIS2_PLACEMENT_3D('',#283,#284,#285);
#220=DRAUGHTING_PRE_DEFINED_CURVE_FONT('continuous');
#221=COLOUR_RGB('',0.501960813999176,0.501960813999176,0.501960813999176);
#222=CARTESIAN_POINT('',(-1.53080849893419E-015,8.00000000000002,25.0));
#223=AXIS2_PLACEMENT_3D('',#286,#287,#288);
#224=SURFACE_SIDE_STYLE('',(#289));
#225=DRAUGHTING_PRE_DEFINED_CURVE_FONT('continuous');
#226=COLOUR_RGB('',0.501960813999176,0.501960813999176,0.501960813999176);
#227=EDGE_LOOP('',(#290));
#228=EDGE_LOOP('',(#291));
#229=AXIS2_PLACEMENT_3D('',#292,#293,#294);
#231=SURFACE_STYLE_FILL_AREA(#295);
#232=ORIENTED_EDGE('',*,*,#68,.F.);
#233=ORIENTED_EDGE('',*,*,#72,.T.);
#234=CARTESIAN_POINT('',(-1.53080849893419E-015,9.24999999999999,24.9999999999999));
#235=DIRECTION('',(-6.12323399573677E-017,5.5618772061662E-015,1.0));
#236=DIRECTION('',(-3.35739603158334E-031,-1.0,5.5618772061662E-015));
#237=SURFACE_STYLE_FILL_AREA(#296);
#238=ORIENTED_EDGE('',*,*,#72,.F.);
#239=ORIENTED_EDGE('',*,*,#70,.T.);
#240=CARTESIAN_POINT('',(-3.82702124733548E-015,9.36347660808521E-015,62.5));
#241=DIRECTION('',(6.12323399573677E-017,-1.49815625729363E-016,-1.0));
#242=DIRECTION('',(4.34640859481711E-033,1.0,-1.49815625729363E-016));
#243=SURFACE_STYLE_FILL_AREA(#297);
#244=SURFACE_STYLE_FILL_AREA(#298);
#245=ORIENTED_EDGE('',*,*,#56,.F.);
#246=ORIENTED_EDGE('',*,*,#63,.T.);
#247=CARTESIAN_POINT('',(0.0,5.5441190629352,0.0));
#248=DIRECTION('',(6.12323399573677E-017,1.22464679914735E-016,-1.0));
#249=DIRECTION('',(-1.23259516440783E-032,1.0,1.22464679914735E-016));
#250=CARTESIAN_POINT('',(-4.89858719658941E-016,1.19852500583491E-015,7.99999999999999));
#251=DIRECTION('',(6.12323399573677E-017,-1.49815625729363E-016,-1.0));
#252=DIRECTION('',(4.34640859481711E-033,1.0,-1.49815625729363E-016));
#253=SURFACE_STYLE_FILL_AREA(#299);
#254=ORIENTED_EDGE('',*,*,#51,.F.);
#255=ORIENTED_EDGE('',*,*,#68,.T.);
#256=CARTESIAN_POINT('',(-1.01033360929657E-015,2.47195782453449E-015,16.5));
#257=DIRECTION('',(6.12323399573677E-017,-1.49815625729363E-016,-1.0));
#258=DIRECTION('',(4.34640859481711E-033,1.0,-1.49815625729363E-016));
#259=CARTESIAN_POINT('',(0.0,0.0,0.0));
#260=DIRECTION('',(6.12323399573677E-017,-1.49815625729363E-016,-1.0));
#261=DIRECTION('',(4.34640859481711E-033,1.0,-1.49815625729363E-016));
#262=CARTESIAN_POINT('',(-6.12323399573677E-015,1.49815625729363E-014,100.0));
#263=DIRECTION('',(6.12323399573677E-017,-1.49815625729363E-016,-1.0));
#264=DIRECTION('',(4.34640859481711E-033,1.0,-1.49815625729363E-016));
#265=SURFACE_STYLE_FILL_AREA(#300);
#266=ORIENTED_EDGE('',*,*,#63,.F.);
#267=ORIENTED_EDGE('',*,*,#51,.T.);
#268=CARTESIAN_POINT('',(-2.44929359829471E-016,5.99262502917456E-016,4.0));
#269=DIRECTION('',(-6.12323399573677E-017,1.49815625729363E-016,1.0));
#270=DIRECTION('',(4.34640859481711E-033,1.0,-1.49815625729363E-016));
#271=CARTESIAN_POINT('',(0.0,0.0,0.0));
#272=DIRECTION('',(6.12323399573677E-017,-1.49815625729363E-016,-1.0));
#273=DIRECTION('',(4.34640859481711E-033,1.0,-1.49815625729363E-016));
#274=SURFACE_STYLE_FILL_AREA(#301);
#275=ORIENTED_EDGE('',*,*,#58,.F.);
#276=ORIENTED_EDGE('',*,*,#56,.T.);
#277=CARTESIAN_POINT('',(-3.06161699786838E-015,7.49078128646817E-015,50.0));
#278=DIRECTION('',(6.12323399573677E-017,-1.49815625729363E-016,-1.0));
#279=DIRECTION('',(4.34640859481711E-033,1.0,-1.49815625729363E-016));
#280=CARTESIAN_POINT('',(-1.53080849893419E-015,3.74539064323408E-015,24.9999999999999));
#281=DIRECTION('',(6.12323399573677E-017,-1.49815625729363E-016,-1.0));
#282=DIRECTION('',(4.34640859481711E-033,1.0,-1.49815625729363E-016));
#283=CARTESIAN_POINT('',(-6.12323399573677E-015,1.49815625729363E-014,100.0));
#284=DIRECTION('',(6.12323399573677E-017,-1.49815625729363E-016,-1.0));
#285=DIRECTION('',(4.34640859481711E-033,1.0,-1.49815625729363E-016));
#286=CARTESIAN_POINT('',(-1.53080849893419E-015,3.74539064323408E-015,25.0));
#287=DIRECTION('',(6.12323399573677E-017,-1.49815625729363E-016,-1.0));
#288=DIRECTION('',(4.34640859481711E-033,1.0,-1.49815625729363E-016));
#289=SURFACE_STYLE_FILL_AREA(#302);
#290=ORIENTED_EDGE('',*,*,#70,.F.);
#291=ORIENTED_EDGE('',*,*,#58,.T.);
#292=CARTESIAN_POINT('',(-6.12323399573677E-015,5.75000000000019,100.0));
#293=DIRECTION('',(-6.12323399573677E-017,-1.22464679914735E-016,1.0));
#294=DIRECTION('',(1.23259516440783E-032,-1.0,-1.22464679914735E-016));
#295=FILL_AREA_STYLE('',(#303));
#296=FILL_AREA_STYLE('',(#304));
#297=FILL_AREA_STYLE('',(#305));
#298=FILL_AREA_STYLE('',(#306));
#299=FILL_AREA_STYLE('',(#307));
#300=FILL_AREA_STYLE('',(#308));
#301=FILL_AREA_STYLE('',(#309));
#302=FILL_AREA_STYLE('',(#310));
#303=FILL_AREA_STYLE_COLOUR('',#311);
#304=FILL_AREA_STYLE_COLOUR('',#312);
#305=FILL_AREA_STYLE_COLOUR('',#313);
#306=FILL_AREA_STYLE_COLOUR('',#314);
#307=FILL_AREA_STYLE_COLOUR('',#315);
#308=FILL_AREA_STYLE_COLOUR('',#316);
#309=FILL_AREA_STYLE_COLOUR('',#317);
#310=FILL_AREA_STYLE_COLOUR('',#318);
#311=COLOUR_RGB('',0.501960813999176,0.501960813999176,0.501960813999176);
#312=COLOUR_RGB('',0.501960813999176,0.501960813999176,0.501960813999176);
#313=COLOUR_RGB('',0.501960813999176,0.501960813999176,0.501960813999176);
#314=COLOUR_RGB('',0.501960813999176,0.501960813999176,0.501960813999176);
#315=COLOUR_RGB('',0.501960813999176,0.501960813999176,0.501960813999176);
#316=COLOUR_RGB('',0.501960813999176,0.501960813999176,0.501960813999176);
#317=COLOUR_RGB('',0.501960813999176,0.501960813999176,0.501960813999176);
#318=COLOUR_RGB('',0.501960813999176,0.501960813999176,0.501960813999176);
ENDSEC;
END-ISO-10303-21;
