ISO-10303-21;
HEADER;
FILE_DESCRIPTION((''),'1');
FILE_NAME('T:/00_BIG-HP\X2\FF71FF6FFF8CFF9F\X0\/2022_\X2\30C030A630F330ED30FC30C930C730FC30BF\X0\/02_STEP\X2\FF83FF9EFF70FF80\X0\/LINK\X2\7528FF83FF9EFF70FF80FF8EFF99FF80FF9E\X0\/CK\X2\FF8DFF6FFF84FF9E30FBFF71FF78FF7EFF7BFF98\X0\/10_\X2\4ED54E0A305275284E38FF8AFF9EFF72FF84FF7CFF98FF70FF7DFF9E\X0\/06_\X2\FF7BFF72FF84FF9EFF9BFF6FFF784E38FF8AFF9EFF72FF84FF8EFF99FF80FF9E\X0\/\X2\5EA76A19\X0\_\X2\5C5E6027590966F4\X0\/ST16-SL6.stp','2022-09-28T01:55:39',(''),(''),'Spatial Interop R21 SP3','Kubotek KeyCreator 2011 V10.0.2 (22737)',' ');
FILE_SCHEMA(('automotive_design'));
ENDSEC;
DATA;
#1=MECHANICAL_DESIGN_GEOMETRIC_PRESENTATION_REPRESENTATION(' ',(#10,#11,#12,#13,#14,#15,#16,#17,#18,#19,#20,#21,#22,#23,#24),#6);
#2=PRODUCT_DEFINITION_CONTEXT('',#25,'design');
#3=APPLICATION_PROTOCOL_DEFINITION('INTERNATIONAL STANDARD','automotive_design',1994,#25);
#4=PRODUCT_CATEGORY_RELATIONSHIP('NONE','NONE',#26,#27);
#5=SHAPE_DEFINITION_REPRESENTATION(#28,#29);
#6= (GEOMETRIC_REPRESENTATION_CONTEXT(3)GLOBAL_UNCERTAINTY_ASSIGNED_CONTEXT((#32))GLOBAL_UNIT_ASSIGNED_CONTEXT((#34,#35,#36))REPRESENTATION_CONTEXT('NONE','WORKSPACE'));
#10=STYLED_ITEM('',(#38),#39);
#11=STYLED_ITEM('',(#40,#41),#42);
#12=STYLED_ITEM('',(#43,#44),#45);
#13=STYLED_ITEM('',(#46),#47);
#14=STYLED_ITEM('',(#48,#49),#50);
#15=STYLED_ITEM('',(#51,#52),#53);
#16=STYLED_ITEM('',(#54,#55),#56);
#17=STYLED_ITEM('',(#57),#58);
#18=STYLED_ITEM('',(#59,#60),#61);
#19=STYLED_ITEM('',(#62),#63);
#20=STYLED_ITEM('',(#64),#65);
#21=STYLED_ITEM('',(#66,#67),#68);
#22=STYLED_ITEM('',(#69),#70);
#23=STYLED_ITEM('',(#71,#72),#73);
#24=STYLED_ITEM('',(#74),#75);
#25=APPLICATION_CONTEXT(' ');
#26=PRODUCT_CATEGORY('part','NONE');
#27=PRODUCT_RELATED_PRODUCT_CATEGORY('detail',' ',(#76));
#28=PRODUCT_DEFINITION_SHAPE('NONE','NONE',#77);
#29=ADVANCED_BREP_SHAPE_REPRESENTATION('240[2]',(#73,#78),#6);
#32=UNCERTAINTY_MEASURE_WITH_UNIT(LENGTH_MEASURE(1.0E-006),#34,'','');
#34= (CONVERSION_BASED_UNIT('MILLIMETRE',#81)LENGTH_UNIT()NAMED_UNIT(#84));
#35= (NAMED_UNIT(#86)PLANE_ANGLE_UNIT()SI_UNIT($,.RADIAN.));
#36= (NAMED_UNIT(#86)SOLID_ANGLE_UNIT()SI_UNIT($,.STERADIAN.));
#38=PRESENTATION_STYLE_ASSIGNMENT((#92));
#39=EDGE_CURVE('240[2]',#93,#93,#94,.T.);
#40=PRESENTATION_STYLE_ASSIGNMENT((#95));
#41=PRESENTATION_STYLE_ASSIGNMENT((#96));
#42=ADVANCED_FACE('240[2]',(#97,#98),#99,.T.);
#43=PRESENTATION_STYLE_ASSIGNMENT((#100));
#44=PRESENTATION_STYLE_ASSIGNMENT((#101));
#45=ADVANCED_FACE('240[2]',(#102,#103),#104,.T.);
#46=PRESENTATION_STYLE_ASSIGNMENT((#105));
#47=EDGE_CURVE('240[2]',#106,#106,#107,.T.);
#48=PRESENTATION_STYLE_ASSIGNMENT((#108));
#49=PRESENTATION_STYLE_ASSIGNMENT((#109));
#50=ADVANCED_FACE('240[2]',(#110,#111),#112,.T.);
#51=PRESENTATION_STYLE_ASSIGNMENT((#113));
#52=PRESENTATION_STYLE_ASSIGNMENT((#114));
#53=ADVANCED_FACE('240[2]',(#115,#116),#117,.T.);
#54=PRESENTATION_STYLE_ASSIGNMENT((#118));
#55=PRESENTATION_STYLE_ASSIGNMENT((#119));
#56=ADVANCED_FACE('240[2]',(#120,#121),#122,.T.);
#57=PRESENTATION_STYLE_ASSIGNMENT((#123));
#58=EDGE_CURVE('240[2]',#124,#124,#125,.T.);
#59=PRESENTATION_STYLE_ASSIGNMENT((#126));
#60=PRESENTATION_STYLE_ASSIGNMENT((#127));
#61=ADVANCED_FACE('240[2]',(#128,#129),#130,.T.);
#62=PRESENTATION_STYLE_ASSIGNMENT((#131));
#63=EDGE_CURVE('240[2]',#132,#132,#133,.T.);
#64=PRESENTATION_STYLE_ASSIGNMENT((#134));
#65=EDGE_CURVE('240[2]',#135,#135,#136,.T.);
#66=PRESENTATION_STYLE_ASSIGNMENT((#137));
#67=PRESENTATION_STYLE_ASSIGNMENT((#138));
#68=ADVANCED_FACE('240[2]',(#139,#140),#141,.F.);
#69=PRESENTATION_STYLE_ASSIGNMENT((#142));
#70=EDGE_CURVE('240[2]',#143,#143,#144,.T.);
#71=PRESENTATION_STYLE_ASSIGNMENT((#145));
#72=PRESENTATION_STYLE_ASSIGNMENT((#146));
#73=MANIFOLD_SOLID_BREP('240[2]',#147);
#74=PRESENTATION_STYLE_ASSIGNMENT((#148));
#75=EDGE_CURVE('240[2]',#149,#149,#150,.T.);
#76=PRODUCT('240[2]','240[2]','PART-240[2]-DESC',(#151));
#77=PRODUCT_DEFINITION('NONE','NONE',#152,#2);
#78=AXIS2_PLACEMENT_3D('',#153,#154,#155);
#81=LENGTH_MEASURE_WITH_UNIT(LENGTH_MEASURE(1.0),#156);
#84=DIMENSIONAL_EXPONENTS(1.0,0.0,0.0,0.0,0.0,0.0,0.0);
#86=DIMENSIONAL_EXPONENTS(0.0,0.0,0.0,0.0,0.0,0.0,0.0);
#92=CURVE_STYLE('',#157,POSITIVE_LENGTH_MEASURE(1000.0),#158);
#93=VERTEX_POINT('',#159);
#94=CIRCLE('',#160,8.0);
#95=SURFACE_STYLE_USAGE(.BOTH.,#161);
#96=CURVE_STYLE('',#162,POSITIVE_LENGTH_MEASURE(1000.0),#163);
#97=FACE_BOUND('',#164,.T.);
#98=FACE_BOUND('',#165,.T.);
#99=CYLINDRICAL_SURFACE('',#166,6.5);
#100=SURFACE_STYLE_USAGE(.BOTH.,#167);
#101=CURVE_STYLE('',#168,POSITIVE_LENGTH_MEASURE(1000.0),#169);
#102=FACE_BOUND('',#170,.T.);
#103=FACE_BOUND('',#171,.T.);
#104=CONICAL_SURFACE('',#172,4.19059892324149,0.5235987755983);
#105=CURVE_STYLE('',#173,POSITIVE_LENGTH_MEASURE(1000.0),#174);
#106=VERTEX_POINT('',#175);
#107=CIRCLE('',#176,3.0);
#108=SURFACE_STYLE_USAGE(.BOTH.,#177);
#109=CURVE_STYLE('',#178,POSITIVE_LENGTH_MEASURE(1000.0),#179);
#110=FACE_BOUND('',#180,.T.);
#111=FACE_BOUND('',#181,.T.);
#112=CYLINDRICAL_SURFACE('',#182,8.0);
#113=SURFACE_STYLE_USAGE(.BOTH.,#183);
#114=CURVE_STYLE('',#184,POSITIVE_LENGTH_MEASURE(1000.0),#185);
#115=FACE_BOUND('',#186,.T.);
#116=FACE_OUTER_BOUND('',#187,.T.);
#117=PLANE('',#188);
#118=SURFACE_STYLE_USAGE(.BOTH.,#189);
#119=CURVE_STYLE('',#190,POSITIVE_LENGTH_MEASURE(1000.0),#191);
#120=FACE_BOUND('',#192,.T.);
#121=FACE_BOUND('',#193,.T.);
#122=CONICAL_SURFACE('',#194,6.5,0.785398163397449);
#123=CURVE_STYLE('',#195,POSITIVE_LENGTH_MEASURE(1000.0),#196);
#124=VERTEX_POINT('',#197);
#125=CIRCLE('',#198,6.5);
#126=SURFACE_STYLE_USAGE(.BOTH.,#199);
#127=CURVE_STYLE('',#200,POSITIVE_LENGTH_MEASURE(1000.0),#201);
#128=FACE_BOUND('',#202,.T.);
#129=FACE_OUTER_BOUND('',#203,.T.);
#130=PLANE('',#204);
#131=CURVE_STYLE('',#205,POSITIVE_LENGTH_MEASURE(1000.0),#206);
#132=VERTEX_POINT('',#207);
#133=CIRCLE('',#208,8.0);
#134=CURVE_STYLE('',#209,POSITIVE_LENGTH_MEASURE(1000.0),#210);
#135=VERTEX_POINT('',#211);
#136=CIRCLE('',#212,3.0);
#137=SURFACE_STYLE_USAGE(.BOTH.,#213);
#138=CURVE_STYLE('',#214,POSITIVE_LENGTH_MEASURE(1000.0),#215);
#139=FACE_BOUND('',#216,.T.);
#140=FACE_BOUND('',#217,.T.);
#141=CYLINDRICAL_SURFACE('',#218,3.0);
#142=CURVE_STYLE('',#219,POSITIVE_LENGTH_MEASURE(1000.0),#220);
#143=VERTEX_POINT('',#221);
#144=CIRCLE('',#222,4.19059892324149);
#145=SURFACE_STYLE_USAGE(.BOTH.,#223);
#146=CURVE_STYLE('',#224,POSITIVE_LENGTH_MEASURE(1000.0),#225);
#147=CLOSED_SHELL('',(#68,#42,#61,#50,#56,#45,#53));
#148=CURVE_STYLE('',#226,POSITIVE_LENGTH_MEASURE(1000.0),#227);
#149=VERTEX_POINT('',#228);
#150=CIRCLE('',#229,6.5);
#151=PRODUCT_CONTEXT('',#25,'mechanical');
#152=PRODUCT_DEFINITION_FORMATION_WITH_SPECIFIED_SOURCE(' ','NONE',#76,.NOT_KNOWN.);
#153=CARTESIAN_POINT('',(0.0,0.0,0.0));
#154=DIRECTION('',(0.0,0.0,1.0));
#155=DIRECTION('',(1.0,0.0,0.0));
#156= (NAMED_UNIT(#84)LENGTH_UNIT()SI_UNIT(.MILLI.,.METRE.));
#157=DRAUGHTING_PRE_DEFINED_CURVE_FONT('continuous');
#158=COLOUR_RGB('',0.501960813999176,0.501960813999176,0.501960813999176);
#159=CARTESIAN_POINT('',(-1.0,7.93725393319377,23.5));
#160=AXIS2_PLACEMENT_3D('',#231,#232,#233);
#161=SURFACE_SIDE_STYLE('',(#234));
#162=DRAUGHTING_PRE_DEFINED_CURVE_FONT('continuous');
#163=COLOUR_RGB('',0.501960813999176,0.501960813999176,0.501960813999176);
#164=EDGE_LOOP('',(#235));
#165=EDGE_LOOP('',(#236));
#166=AXIS2_PLACEMENT_3D('',#237,#238,#239);
#167=SURFACE_SIDE_STYLE('',(#240));
#168=DRAUGHTING_PRE_DEFINED_CURVE_FONT('continuous');
#169=COLOUR_RGB('',0.501960813999176,0.501960813999176,0.501960813999176);
#170=EDGE_LOOP('',(#241));
#171=EDGE_LOOP('',(#242));
#172=AXIS2_PLACEMENT_3D('',#243,#244,#245);
#173=DRAUGHTING_PRE_DEFINED_CURVE_FONT('continuous');
#174=COLOUR_RGB('',0.501960813999176,0.501960813999176,0.501960813999176);
#175=CARTESIAN_POINT('',(3.0,0.0,0.0));
#176=AXIS2_PLACEMENT_3D('',#246,#247,#248);
#177=SURFACE_SIDE_STYLE('',(#249));
#178=DRAUGHTING_PRE_DEFINED_CURVE_FONT('continuous');
#179=COLOUR_RGB('',0.501960813999176,0.501960813999176,0.501960813999176);
#180=EDGE_LOOP('',(#250));
#181=EDGE_LOOP('',(#251));
#182=AXIS2_PLACEMENT_3D('',#252,#253,#254);
#183=SURFACE_SIDE_STYLE('',(#255));
#184=DRAUGHTING_PRE_DEFINED_CURVE_FONT('continuous');
#185=COLOUR_RGB('',0.501960813999176,0.501960813999176,0.501960813999176);
#186=EDGE_LOOP('',(#256));
#187=EDGE_LOOP('',(#257));
#188=AXIS2_PLACEMENT_3D('',#258,#259,#260);
#189=SURFACE_SIDE_STYLE('',(#261));
#190=DRAUGHTING_PRE_DEFINED_CURVE_FONT('continuous');
#191=COLOUR_RGB('',0.501960813999176,0.501960813999176,0.501960813999176);
#192=EDGE_LOOP('',(#262));
#193=EDGE_LOOP('',(#263));
#194=AXIS2_PLACEMENT_3D('',#264,#265,#266);
#195=DRAUGHTING_PRE_DEFINED_CURVE_FONT('continuous');
#196=COLOUR_RGB('',0.501960813999176,0.501960813999176,0.501960813999176);
#197=CARTESIAN_POINT('',(-6.5,1.74514797824621E-015,22.0));
#198=AXIS2_PLACEMENT_3D('',#267,#268,#269);
#199=SURFACE_SIDE_STYLE('',(#270));
#200=DRAUGHTING_PRE_DEFINED_CURVE_FONT('continuous');
#201=COLOUR_RGB('',0.501960813999176,0.501960813999176,0.501960813999176);
#202=EDGE_LOOP('',(#271));
#203=EDGE_LOOP('',(#272));
#204=AXIS2_PLACEMENT_3D('',#273,#274,#275);
#205=DRAUGHTING_PRE_DEFINED_CURVE_FONT('continuous');
#206=COLOUR_RGB('',0.501960813999176,0.501960813999176,0.501960813999176);
#207=CARTESIAN_POINT('',(-0.999999999999963,7.93725393319378,100.0));
#208=AXIS2_PLACEMENT_3D('',#276,#277,#278);
#209=DRAUGHTING_PRE_DEFINED_CURVE_FONT('continuous');
#210=COLOUR_RGB('',0.501960813999176,0.501960813999176,0.501960813999176);
#211=CARTESIAN_POINT('',(3.0,0.0,100.0));
#212=AXIS2_PLACEMENT_3D('',#279,#280,#281);
#213=SURFACE_SIDE_STYLE('',(#282));
#214=DRAUGHTING_PRE_DEFINED_CURVE_FONT('continuous');
#215=COLOUR_RGB('',0.501960813999176,0.501960813999176,0.501960813999176);
#216=EDGE_LOOP('',(#283));
#217=EDGE_LOOP('',(#284));
#218=AXIS2_PLACEMENT_3D('',#285,#286,#287);
#219=DRAUGHTING_PRE_DEFINED_CURVE_FONT('continuous');
#220=COLOUR_RGB('',0.501960813999176,0.501960813999176,0.501960813999176);
#221=CARTESIAN_POINT('',(4.19059892324149,-2.56617126906431E-016,5.13200355785802E-016));
#222=AXIS2_PLACEMENT_3D('',#288,#289,#290);
#223=SURFACE_SIDE_STYLE('',(#291));
#224=DRAUGHTING_PRE_DEFINED_CURVE_FONT('continuous');
#225=COLOUR_RGB('',0.501960813999176,0.501960813999176,0.501960813999176);
#226=DRAUGHTING_PRE_DEFINED_CURVE_FONT('continuous');
#227=COLOUR_RGB('',0.501960813999176,0.501960813999176,0.501960813999176);
#228=CARTESIAN_POINT('',(-3.1961524227066,-5.65991251618139,4.0));
#229=AXIS2_PLACEMENT_3D('',#292,#293,#294);
#231=CARTESIAN_POINT('',(-2.87791997799628E-015,1.43895998899814E-015,23.5));
#232=DIRECTION('',(1.22464679914735E-016,-6.12323399573677E-017,-1.0));
#233=DIRECTION('',(1.0,-1.83697019872103E-016,1.22464679914735E-016));
#234=SURFACE_STYLE_FILL_AREA(#295);
#235=ORIENTED_EDGE('',*,*,#75,.F.);
#236=ORIENTED_EDGE('',*,*,#58,.T.);
#237=CARTESIAN_POINT('',(2.65258542464472E-016,-1.32629271232236E-016,-2.16600037373352));
#238=DIRECTION('',(1.22464679914735E-016,-6.12323399573677E-017,-1.0));
#239=DIRECTION('',(1.0,-1.83697019872103E-016,1.22464679914735E-016));
#240=SURFACE_STYLE_FILL_AREA(#296);
#241=ORIENTED_EDGE('',*,*,#70,.T.);
#242=ORIENTED_EDGE('',*,*,#75,.T.);
#243=CARTESIAN_POINT('',(0.0,0.0,0.0));
#244=DIRECTION('',(-1.22464679914735E-016,6.12323399573677E-017,1.0));
#245=DIRECTION('',(-1.0,1.83697019872103E-016,-1.22464679914735E-016));
#246=CARTESIAN_POINT('',(0.0,0.0,1.83697019872103E-016));
#247=DIRECTION('',(-1.22464679914735E-016,6.12323399573677E-017,1.0));
#248=DIRECTION('',(1.0,7.49879891330927E-033,1.22464679914735E-016));
#249=SURFACE_STYLE_FILL_AREA(#297);
#250=ORIENTED_EDGE('',*,*,#63,.F.);
#251=ORIENTED_EDGE('',*,*,#39,.F.);
#252=CARTESIAN_POINT('',(2.65258542464472E-016,-1.32629271232236E-016,-2.16600037373352));
#253=DIRECTION('',(1.22464679914735E-016,-6.12323399573677E-017,-1.0));
#254=DIRECTION('',(1.0,-1.83697019872103E-016,1.22464679914735E-016));
#255=SURFACE_STYLE_FILL_AREA(#298);
#256=ORIENTED_EDGE('',*,*,#47,.T.);
#257=ORIENTED_EDGE('',*,*,#70,.F.);
#258=CARTESIAN_POINT('',(-5.51091059616308E-016,-3.0,1.83697019872103E-016));
#259=DIRECTION('',(1.22464679914735E-016,-6.12323399573677E-017,-1.0));
#260=DIRECTION('',(0.0,-1.0,6.12323399573677E-017));
#261=SURFACE_STYLE_FILL_AREA(#299);
#262=ORIENTED_EDGE('',*,*,#39,.T.);
#263=ORIENTED_EDGE('',*,*,#58,.F.);
#264=CARTESIAN_POINT('',(-2.69422295812418E-015,1.34711147906209E-015,22.0));
#265=DIRECTION('',(-1.22464679914735E-016,6.12323399573677E-017,1.0));
#266=DIRECTION('',(-1.0,1.83697019872103E-016,-1.22464679914735E-016));
#267=CARTESIAN_POINT('',(-2.69422295812418E-015,1.34711147906209E-015,22.0));
#268=DIRECTION('',(1.22464679914735E-016,-6.12323399573677E-017,-1.0));
#269=DIRECTION('',(1.0,-1.83697019872103E-016,1.22464679914735E-016));
#270=SURFACE_STYLE_FILL_AREA(#300);
#271=ORIENTED_EDGE('',*,*,#65,.T.);
#272=ORIENTED_EDGE('',*,*,#63,.T.);
#273=CARTESIAN_POINT('',(-1.37160441504504E-014,-7.99999999999999,100.0));
#274=DIRECTION('',(-2.81159925711243E-065,6.12323399573677E-017,1.0));
#275=DIRECTION('',(1.0,4.59169004331693E-049,0.0));
#276=CARTESIAN_POINT('',(-1.22464679914735E-014,6.12323399573677E-015,100.0));
#277=DIRECTION('',(-1.34037049181927E-032,6.12323399573677E-017,1.0));
#278=DIRECTION('',(1.0,-1.83697019872103E-016,2.46519032881566E-032));
#279=CARTESIAN_POINT('',(0.0,0.0,100.0));
#280=DIRECTION('',(2.81159925711243E-065,-6.12323399573677E-017,-1.0));
#281=DIRECTION('',(1.0,1.72160801535391E-081,2.81159925711243E-065));
#282=SURFACE_STYLE_FILL_AREA(#301);
#283=ORIENTED_EDGE('',*,*,#65,.F.);
#284=ORIENTED_EDGE('',*,*,#47,.F.);
#285=CARTESIAN_POINT('',(0.0,0.0,0.0));
#286=DIRECTION('',(0.0,0.0,1.0));
#287=DIRECTION('',(1.0,0.0,0.0));
#288=CARTESIAN_POINT('',(3.0189874454731E-048,-1.50949372273656E-048,-2.46519032881566E-032));
#289=DIRECTION('',(-1.22464679914735E-016,6.12323399573677E-017,1.0));
#290=DIRECTION('',(-1.0,1.83697019872103E-016,-1.22464679914735E-016));
#291=SURFACE_STYLE_FILL_AREA(#302);
#292=CARTESIAN_POINT('',(-4.89858719658941E-016,2.44929359829471E-016,4.0));
#293=DIRECTION('',(1.22464679914735E-016,-6.12323399573677E-017,-1.0));
#294=DIRECTION('',(1.0,-1.83697019872103E-016,1.22464679914735E-016));
#295=FILL_AREA_STYLE('',(#303));
#296=FILL_AREA_STYLE('',(#304));
#297=FILL_AREA_STYLE('',(#305));
#298=FILL_AREA_STYLE('',(#306));
#299=FILL_AREA_STYLE('',(#307));
#300=FILL_AREA_STYLE('',(#308));
#301=FILL_AREA_STYLE('',(#309));
#302=FILL_AREA_STYLE('',(#310));
#303=FILL_AREA_STYLE_COLOUR('',#311);
#304=FILL_AREA_STYLE_COLOUR('',#312);
#305=FILL_AREA_STYLE_COLOUR('',#313);
#306=FILL_AREA_STYLE_COLOUR('',#314);
#307=FILL_AREA_STYLE_COLOUR('',#315);
#308=FILL_AREA_STYLE_COLOUR('',#316);
#309=FILL_AREA_STYLE_COLOUR('',#317);
#310=FILL_AREA_STYLE_COLOUR('',#318);
#311=COLOUR_RGB('',0.501960813999176,0.501960813999176,0.501960813999176);
#312=COLOUR_RGB('',0.501960813999176,0.501960813999176,0.501960813999176);
#313=COLOUR_RGB('',0.501960813999176,0.501960813999176,0.501960813999176);
#314=COLOUR_RGB('',0.501960813999176,0.501960813999176,0.501960813999176);
#315=COLOUR_RGB('',0.501960813999176,0.501960813999176,0.501960813999176);
#316=COLOUR_RGB('',0.501960813999176,0.501960813999176,0.501960813999176);
#317=COLOUR_RGB('',0.501960813999176,0.501960813999176,0.501960813999176);
#318=COLOUR_RGB('',0.501960813999176,0.501960813999176,0.501960813999176);
ENDSEC;
END-ISO-10303-21;
