ISO-10303-21;
HEADER;
FILE_DESCRIPTION((''),'1');
FILE_NAME('T:/00_BIG-HP\X2\FF71FF6FFF8CFF9F\X0\/2022_\X2\30C030A630F330ED30FC30C930C730FC30BF\X0\/02_STEP\X2\FF83FF9EFF70FF80\X0\/LINK\X2\7528FF83FF9EFF70FF80FF8EFF99FF80FF9E\X0\/CK\X2\FF8DFF6FFF84FF9E30FBFF71FF78FF7EFF7BFF98\X0\/10_\X2\4ED54E0A305275284E38FF8AFF9EFF72FF84FF7CFF98FF70FF7DFF9E\X0\/06_\X2\FF7BFF72FF84FF9EFF9BFF6FFF784E38FF8AFF9EFF72FF84FF8EFF99FF80FF9E\X0\/\X2\5EA76A19\X0\_\X2\5C5E6027590966F4\X0\/ST16-SL5.stp','2022-09-28T01:05:12',(''),(''),'Spatial Interop R21 SP3','Kubotek KeyCreator 2011 V10.0.2 (22737)',' ');
FILE_SCHEMA(('automotive_design'));
ENDSEC;
DATA;
#1=MECHANICAL_DESIGN_GEOMETRIC_PRESENTATION_REPRESENTATION(' ',(#10,#11,#12,#13,#14,#15,#16,#17,#18,#19,#20,#21,#22,#23,#24),#6);
#2=PRODUCT_DEFINITION_CONTEXT('',#25,'design');
#3=APPLICATION_PROTOCOL_DEFINITION('INTERNATIONAL STANDARD','automotive_design',1994,#25);
#4=PRODUCT_CATEGORY_RELATIONSHIP('NONE','NONE',#26,#27);
#5=SHAPE_DEFINITION_REPRESENTATION(#28,#29);
#6= (GEOMETRIC_REPRESENTATION_CONTEXT(3)GLOBAL_UNCERTAINTY_ASSIGNED_CONTEXT((#32))GLOBAL_UNIT_ASSIGNED_CONTEXT((#34,#35,#36))REPRESENTATION_CONTEXT('NONE','WORKSPACE'));
#10=STYLED_ITEM('',(#38,#39),#40);
#11=STYLED_ITEM('',(#41,#42),#43);
#12=STYLED_ITEM('',(#44),#45);
#13=STYLED_ITEM('',(#46,#47),#48);
#14=STYLED_ITEM('',(#49,#50),#51);
#15=STYLED_ITEM('',(#52),#53);
#16=STYLED_ITEM('',(#54),#55);
#17=STYLED_ITEM('',(#56),#57);
#18=STYLED_ITEM('',(#58,#59),#60);
#19=STYLED_ITEM('',(#61),#62);
#20=STYLED_ITEM('',(#63),#64);
#21=STYLED_ITEM('',(#65,#66),#67);
#22=STYLED_ITEM('',(#68,#69),#70);
#23=STYLED_ITEM('',(#71),#72);
#24=STYLED_ITEM('',(#73,#74),#75);
#25=APPLICATION_CONTEXT(' ');
#26=PRODUCT_CATEGORY('part','NONE');
#27=PRODUCT_RELATED_PRODUCT_CATEGORY('detail',' ',(#76));
#28=PRODUCT_DEFINITION_SHAPE('NONE','NONE',#77);
#29=ADVANCED_BREP_SHAPE_REPRESENTATION('240[2]',(#60,#78),#6);
#32=UNCERTAINTY_MEASURE_WITH_UNIT(LENGTH_MEASURE(1.0E-006),#34,'','');
#34= (CONVERSION_BASED_UNIT('MILLIMETRE',#81)LENGTH_UNIT()NAMED_UNIT(#84));
#35= (NAMED_UNIT(#86)PLANE_ANGLE_UNIT()SI_UNIT($,.RADIAN.));
#36= (NAMED_UNIT(#86)SOLID_ANGLE_UNIT()SI_UNIT($,.STERADIAN.));
#38=PRESENTATION_STYLE_ASSIGNMENT((#92));
#39=PRESENTATION_STYLE_ASSIGNMENT((#93));
#40=ADVANCED_FACE('240[2]',(#94,#95),#96,.F.);
#41=PRESENTATION_STYLE_ASSIGNMENT((#97));
#42=PRESENTATION_STYLE_ASSIGNMENT((#98));
#43=ADVANCED_FACE('240[2]',(#99,#100),#101,.T.);
#44=PRESENTATION_STYLE_ASSIGNMENT((#102));
#45=EDGE_CURVE('240[2]',#103,#103,#104,.T.);
#46=PRESENTATION_STYLE_ASSIGNMENT((#105));
#47=PRESENTATION_STYLE_ASSIGNMENT((#106));
#48=ADVANCED_FACE('240[2]',(#107,#108),#109,.T.);
#49=PRESENTATION_STYLE_ASSIGNMENT((#110));
#50=PRESENTATION_STYLE_ASSIGNMENT((#111));
#51=ADVANCED_FACE('240[2]',(#112,#113),#114,.T.);
#52=PRESENTATION_STYLE_ASSIGNMENT((#115));
#53=EDGE_CURVE('240[2]',#116,#116,#117,.T.);
#54=PRESENTATION_STYLE_ASSIGNMENT((#118));
#55=EDGE_CURVE('240[2]',#119,#119,#120,.T.);
#56=PRESENTATION_STYLE_ASSIGNMENT((#121));
#57=EDGE_CURVE('240[2]',#122,#122,#123,.T.);
#58=PRESENTATION_STYLE_ASSIGNMENT((#124));
#59=PRESENTATION_STYLE_ASSIGNMENT((#125));
#60=MANIFOLD_SOLID_BREP('240[2]',#126);
#61=PRESENTATION_STYLE_ASSIGNMENT((#127));
#62=EDGE_CURVE('240[2]',#128,#128,#129,.T.);
#63=PRESENTATION_STYLE_ASSIGNMENT((#130));
#64=EDGE_CURVE('240[2]',#131,#131,#132,.T.);
#65=PRESENTATION_STYLE_ASSIGNMENT((#133));
#66=PRESENTATION_STYLE_ASSIGNMENT((#134));
#67=ADVANCED_FACE('240[2]',(#135,#136),#137,.T.);
#68=PRESENTATION_STYLE_ASSIGNMENT((#138));
#69=PRESENTATION_STYLE_ASSIGNMENT((#139));
#70=ADVANCED_FACE('240[2]',(#140,#141),#142,.T.);
#71=PRESENTATION_STYLE_ASSIGNMENT((#143));
#72=EDGE_CURVE('240[2]',#144,#144,#145,.T.);
#73=PRESENTATION_STYLE_ASSIGNMENT((#146));
#74=PRESENTATION_STYLE_ASSIGNMENT((#147));
#75=ADVANCED_FACE('240[2]',(#148,#149),#150,.T.);
#76=PRODUCT('240[2]','240[2]','PART-240[2]-DESC',(#151));
#77=PRODUCT_DEFINITION('NONE','NONE',#152,#2);
#78=AXIS2_PLACEMENT_3D('',#153,#154,#155);
#81=LENGTH_MEASURE_WITH_UNIT(LENGTH_MEASURE(1.0),#156);
#84=DIMENSIONAL_EXPONENTS(1.0,0.0,0.0,0.0,0.0,0.0,0.0);
#86=DIMENSIONAL_EXPONENTS(0.0,0.0,0.0,0.0,0.0,0.0,0.0);
#92=SURFACE_STYLE_USAGE(.BOTH.,#157);
#93=CURVE_STYLE('',#158,POSITIVE_LENGTH_MEASURE(1000.0),#159);
#94=FACE_BOUND('',#160,.T.);
#95=FACE_BOUND('',#161,.T.);
#96=CYLINDRICAL_SURFACE('',#162,2.5);
#97=SURFACE_STYLE_USAGE(.BOTH.,#163);
#98=CURVE_STYLE('',#164,POSITIVE_LENGTH_MEASURE(1000.0),#165);
#99=FACE_BOUND('',#166,.T.);
#100=FACE_OUTER_BOUND('',#167,.T.);
#101=PLANE('',#168);
#102=CURVE_STYLE('',#169,POSITIVE_LENGTH_MEASURE(1000.0),#170);
#103=VERTEX_POINT('',#171);
#104=CIRCLE('',#172,2.5);
#105=SURFACE_STYLE_USAGE(.BOTH.,#173);
#106=CURVE_STYLE('',#174,POSITIVE_LENGTH_MEASURE(1000.0),#175);
#107=FACE_BOUND('',#176,.T.);
#108=FACE_BOUND('',#177,.T.);
#109=CYLINDRICAL_SURFACE('',#178,6.5);
#110=SURFACE_STYLE_USAGE(.BOTH.,#179);
#111=CURVE_STYLE('',#180,POSITIVE_LENGTH_MEASURE(1000.0),#181);
#112=FACE_BOUND('',#182,.T.);
#113=FACE_BOUND('',#183,.T.);
#114=CYLINDRICAL_SURFACE('',#184,8.0);
#115=CURVE_STYLE('',#185,POSITIVE_LENGTH_MEASURE(1000.0),#186);
#116=VERTEX_POINT('',#187);
#117=CIRCLE('',#188,2.5);
#118=CURVE_STYLE('',#189,POSITIVE_LENGTH_MEASURE(1000.0),#190);
#119=VERTEX_POINT('',#191);
#120=CIRCLE('',#192,8.0);
#121=CURVE_STYLE('',#193,POSITIVE_LENGTH_MEASURE(1000.0),#194);
#122=VERTEX_POINT('',#195);
#123=CIRCLE('',#196,8.0);
#124=SURFACE_STYLE_USAGE(.BOTH.,#197);
#125=CURVE_STYLE('',#198,POSITIVE_LENGTH_MEASURE(1000.0),#199);
#126=CLOSED_SHELL('',(#40,#67,#48,#75,#43,#51,#70));
#127=CURVE_STYLE('',#200,POSITIVE_LENGTH_MEASURE(1000.0),#201);
#128=VERTEX_POINT('',#202);
#129=CIRCLE('',#203,4.19059892324149);
#130=CURVE_STYLE('',#204,POSITIVE_LENGTH_MEASURE(1000.0),#205);
#131=VERTEX_POINT('',#206);
#132=CIRCLE('',#207,6.5);
#133=SURFACE_STYLE_USAGE(.BOTH.,#208);
#134=CURVE_STYLE('',#209,POSITIVE_LENGTH_MEASURE(1000.0),#210);
#135=FACE_BOUND('',#211,.T.);
#136=FACE_OUTER_BOUND('',#212,.T.);
#137=PLANE('',#213);
#138=SURFACE_STYLE_USAGE(.BOTH.,#214);
#139=CURVE_STYLE('',#215,POSITIVE_LENGTH_MEASURE(1000.0),#216);
#140=FACE_BOUND('',#217,.T.);
#141=FACE_BOUND('',#218,.T.);
#142=CONICAL_SURFACE('',#219,6.5,0.785398163397449);
#143=CURVE_STYLE('',#220,POSITIVE_LENGTH_MEASURE(1000.0),#221);
#144=VERTEX_POINT('',#222);
#145=CIRCLE('',#223,6.5);
#146=SURFACE_STYLE_USAGE(.BOTH.,#224);
#147=CURVE_STYLE('',#225,POSITIVE_LENGTH_MEASURE(1000.0),#226);
#148=FACE_BOUND('',#227,.T.);
#149=FACE_BOUND('',#228,.T.);
#150=CONICAL_SURFACE('',#229,4.19059892324149,0.5235987755983);
#151=PRODUCT_CONTEXT('',#25,'mechanical');
#152=PRODUCT_DEFINITION_FORMATION_WITH_SPECIFIED_SOURCE(' ','NONE',#76,.NOT_KNOWN.);
#153=CARTESIAN_POINT('',(0.0,0.0,0.0));
#154=DIRECTION('',(0.0,0.0,1.0));
#155=DIRECTION('',(1.0,0.0,0.0));
#156= (NAMED_UNIT(#84)LENGTH_UNIT()SI_UNIT(.MILLI.,.METRE.));
#157=SURFACE_SIDE_STYLE('',(#231));
#158=DRAUGHTING_PRE_DEFINED_CURVE_FONT('continuous');
#159=COLOUR_RGB('',0.501960813999176,0.501960813999176,0.501960813999176);
#160=EDGE_LOOP('',(#232));
#161=EDGE_LOOP('',(#233));
#162=AXIS2_PLACEMENT_3D('',#234,#235,#236);
#163=SURFACE_SIDE_STYLE('',(#237));
#164=DRAUGHTING_PRE_DEFINED_CURVE_FONT('continuous');
#165=COLOUR_RGB('',0.501960813999176,0.501960813999176,0.501960813999176);
#166=EDGE_LOOP('',(#238));
#167=EDGE_LOOP('',(#239));
#168=AXIS2_PLACEMENT_3D('',#240,#241,#242);
#169=DRAUGHTING_PRE_DEFINED_CURVE_FONT('continuous');
#170=COLOUR_RGB('',0.501960813999176,0.501960813999176,0.501960813999176);
#171=CARTESIAN_POINT('',(2.5,0.0,100.0));
#172=AXIS2_PLACEMENT_3D('',#243,#244,#245);
#173=SURFACE_SIDE_STYLE('',(#246));
#174=DRAUGHTING_PRE_DEFINED_CURVE_FONT('continuous');
#175=COLOUR_RGB('',0.501960813999176,0.501960813999176,0.501960813999176);
#176=EDGE_LOOP('',(#247));
#177=EDGE_LOOP('',(#248));
#178=AXIS2_PLACEMENT_3D('',#249,#250,#251);
#179=SURFACE_SIDE_STYLE('',(#252));
#180=DRAUGHTING_PRE_DEFINED_CURVE_FONT('continuous');
#181=COLOUR_RGB('',0.501960813999176,0.501960813999176,0.501960813999176);
#182=EDGE_LOOP('',(#253));
#183=EDGE_LOOP('',(#254));
#184=AXIS2_PLACEMENT_3D('',#255,#256,#257);
#185=DRAUGHTING_PRE_DEFINED_CURVE_FONT('continuous');
#186=COLOUR_RGB('',0.501960813999176,0.501960813999176,0.501960813999176);
#187=CARTESIAN_POINT('',(2.5,0.0,0.0));
#188=AXIS2_PLACEMENT_3D('',#258,#259,#260);
#189=DRAUGHTING_PRE_DEFINED_CURVE_FONT('continuous');
#190=COLOUR_RGB('',0.501960813999176,0.501960813999176,0.501960813999176);
#191=CARTESIAN_POINT('',(-0.999999999999957,7.93725393319378,100.0));
#192=AXIS2_PLACEMENT_3D('',#261,#262,#263);
#193=DRAUGHTING_PRE_DEFINED_CURVE_FONT('continuous');
#194=COLOUR_RGB('',0.501960813999176,0.501960813999176,0.501960813999176);
#195=CARTESIAN_POINT('',(-0.999999999999999,7.93725393319377,23.5));
#196=AXIS2_PLACEMENT_3D('',#264,#265,#266);
#197=SURFACE_SIDE_STYLE('',(#267));
#198=DRAUGHTING_PRE_DEFINED_CURVE_FONT('continuous');
#199=COLOUR_RGB('',0.501960813999176,0.501960813999176,0.501960813999176);
#200=DRAUGHTING_PRE_DEFINED_CURVE_FONT('continuous');
#201=COLOUR_RGB('',0.501960813999176,0.501960813999176,0.501960813999176);
#202=CARTESIAN_POINT('',(4.19059892324149,-2.56617126906431E-016,5.13200355785802E-016));
#203=AXIS2_PLACEMENT_3D('',#268,#269,#270);
#204=DRAUGHTING_PRE_DEFINED_CURVE_FONT('continuous');
#205=COLOUR_RGB('',0.501960813999176,0.501960813999176,0.501960813999176);
#206=CARTESIAN_POINT('',(-6.5,1.74514797824621E-015,22.0));
#207=AXIS2_PLACEMENT_3D('',#271,#272,#273);
#208=SURFACE_SIDE_STYLE('',(#274));
#209=DRAUGHTING_PRE_DEFINED_CURVE_FONT('continuous');
#210=COLOUR_RGB('',0.501960813999176,0.501960813999176,0.501960813999176);
#211=EDGE_LOOP('',(#275));
#212=EDGE_LOOP('',(#276));
#213=AXIS2_PLACEMENT_3D('',#277,#278,#279);
#214=SURFACE_SIDE_STYLE('',(#280));
#215=DRAUGHTING_PRE_DEFINED_CURVE_FONT('continuous');
#216=COLOUR_RGB('',0.501960813999176,0.501960813999176,0.501960813999176);
#217=EDGE_LOOP('',(#281));
#218=EDGE_LOOP('',(#282));
#219=AXIS2_PLACEMENT_3D('',#283,#284,#285);
#220=DRAUGHTING_PRE_DEFINED_CURVE_FONT('continuous');
#221=COLOUR_RGB('',0.501960813999176,0.501960813999176,0.501960813999176);
#222=CARTESIAN_POINT('',(-1.00000000000002,6.42261628933256,4.0));
#223=AXIS2_PLACEMENT_3D('',#286,#287,#288);
#224=SURFACE_SIDE_STYLE('',(#289));
#225=DRAUGHTING_PRE_DEFINED_CURVE_FONT('continuous');
#226=COLOUR_RGB('',0.501960813999176,0.501960813999176,0.501960813999176);
#227=EDGE_LOOP('',(#290));
#228=EDGE_LOOP('',(#291));
#229=AXIS2_PLACEMENT_3D('',#292,#293,#294);
#231=SURFACE_STYLE_FILL_AREA(#295);
#232=ORIENTED_EDGE('',*,*,#45,.F.);
#233=ORIENTED_EDGE('',*,*,#53,.F.);
#234=CARTESIAN_POINT('',(0.0,0.0,0.0));
#235=DIRECTION('',(0.0,0.0,1.0));
#236=DIRECTION('',(1.0,0.0,0.0));
#237=SURFACE_STYLE_FILL_AREA(#296);
#238=ORIENTED_EDGE('',*,*,#53,.T.);
#239=ORIENTED_EDGE('',*,*,#62,.F.);
#240=CARTESIAN_POINT('',(-4.59242549680257E-016,-2.5,1.53080849893419E-016));
#241=DIRECTION('',(1.22464679914735E-016,-6.12323399573677E-017,-1.0));
#242=DIRECTION('',(0.0,-1.0,6.12323399573677E-017));
#243=CARTESIAN_POINT('',(0.0,0.0,100.0));
#244=DIRECTION('',(2.81159925711243E-065,-6.12323399573677E-017,-1.0));
#245=DIRECTION('',(1.0,1.72160801535391E-081,2.81159925711243E-065));
#246=SURFACE_STYLE_FILL_AREA(#297);
#247=ORIENTED_EDGE('',*,*,#72,.F.);
#248=ORIENTED_EDGE('',*,*,#64,.T.);
#249=CARTESIAN_POINT('',(2.65258542464472E-016,-1.32629271232236E-016,-2.16600037373352));
#250=DIRECTION('',(1.22464679914735E-016,-6.12323399573677E-017,-1.0));
#251=DIRECTION('',(1.0,-1.83697019872103E-016,1.22464679914735E-016));
#252=SURFACE_STYLE_FILL_AREA(#298);
#253=ORIENTED_EDGE('',*,*,#55,.F.);
#254=ORIENTED_EDGE('',*,*,#57,.F.);
#255=CARTESIAN_POINT('',(2.65258542464472E-016,-1.32629271232236E-016,-2.16600037373352));
#256=DIRECTION('',(1.22464679914735E-016,-6.12323399573677E-017,-1.0));
#257=DIRECTION('',(1.0,-1.83697019872103E-016,1.22464679914735E-016));
#258=CARTESIAN_POINT('',(0.0,0.0,1.53080849893419E-016));
#259=DIRECTION('',(-1.22464679914735E-016,6.12323399573677E-017,1.0));
#260=DIRECTION('',(1.0,7.49879891330927E-033,1.22464679914735E-016));
#261=CARTESIAN_POINT('',(-1.22464679914735E-014,6.12323399573677E-015,100.0));
#262=DIRECTION('',(-1.34037049181927E-032,6.12323399573677E-017,1.0));
#263=DIRECTION('',(1.0,-1.83697019872103E-016,2.46519032881566E-032));
#264=CARTESIAN_POINT('',(-2.87791997799628E-015,1.43895998899814E-015,23.5));
#265=DIRECTION('',(1.22464679914735E-016,-6.12323399573677E-017,-1.0));
#266=DIRECTION('',(1.0,-1.83697019872103E-016,1.22464679914735E-016));
#267=SURFACE_STYLE_FILL_AREA(#299);
#268=CARTESIAN_POINT('',(2.11329121183117E-047,-1.05664560591559E-047,-1.72563323017096E-031));
#269=DIRECTION('',(-1.22464679914735E-016,6.12323399573677E-017,1.0));
#270=DIRECTION('',(-1.0,1.83697019872103E-016,-1.22464679914735E-016));
#271=CARTESIAN_POINT('',(-2.69422295812418E-015,1.34711147906209E-015,22.0));
#272=DIRECTION('',(1.22464679914735E-016,-6.12323399573677E-017,-1.0));
#273=DIRECTION('',(1.0,-1.83697019872103E-016,1.22464679914735E-016));
#274=SURFACE_STYLE_FILL_AREA(#300);
#275=ORIENTED_EDGE('',*,*,#45,.T.);
#276=ORIENTED_EDGE('',*,*,#55,.T.);
#277=CARTESIAN_POINT('',(-1.37160441504504E-014,-7.99999999999999,100.0));
#278=DIRECTION('',(-2.81159925711243E-065,6.12323399573677E-017,1.0));
#279=DIRECTION('',(1.0,4.59169004331693E-049,0.0));
#280=SURFACE_STYLE_FILL_AREA(#301);
#281=ORIENTED_EDGE('',*,*,#64,.F.);
#282=ORIENTED_EDGE('',*,*,#57,.T.);
#283=CARTESIAN_POINT('',(-2.69422295812418E-015,1.34711147906209E-015,22.0));
#284=DIRECTION('',(-1.22464679914735E-016,6.12323399573677E-017,1.0));
#285=DIRECTION('',(-1.0,1.83697019872103E-016,-1.22464679914735E-016));
#286=CARTESIAN_POINT('',(-4.89858719658941E-016,2.44929359829471E-016,4.0));
#287=DIRECTION('',(1.22464679914735E-016,-6.12323399573677E-017,-1.0));
#288=DIRECTION('',(1.0,-1.83697019872103E-016,1.22464679914735E-016));
#289=SURFACE_STYLE_FILL_AREA(#302);
#290=ORIENTED_EDGE('',*,*,#72,.T.);
#291=ORIENTED_EDGE('',*,*,#62,.T.);
#292=CARTESIAN_POINT('',(0.0,0.0,0.0));
#293=DIRECTION('',(-1.22464679914735E-016,6.12323399573677E-017,1.0));
#294=DIRECTION('',(-1.0,1.83697019872103E-016,-1.22464679914735E-016));
#295=FILL_AREA_STYLE('',(#303));
#296=FILL_AREA_STYLE('',(#304));
#297=FILL_AREA_STYLE('',(#305));
#298=FILL_AREA_STYLE('',(#306));
#299=FILL_AREA_STYLE('',(#307));
#300=FILL_AREA_STYLE('',(#308));
#301=FILL_AREA_STYLE('',(#309));
#302=FILL_AREA_STYLE('',(#310));
#303=FILL_AREA_STYLE_COLOUR('',#311);
#304=FILL_AREA_STYLE_COLOUR('',#312);
#305=FILL_AREA_STYLE_COLOUR('',#313);
#306=FILL_AREA_STYLE_COLOUR('',#314);
#307=FILL_AREA_STYLE_COLOUR('',#315);
#308=FILL_AREA_STYLE_COLOUR('',#316);
#309=FILL_AREA_STYLE_COLOUR('',#317);
#310=FILL_AREA_STYLE_COLOUR('',#318);
#311=COLOUR_RGB('',0.501960813999176,0.501960813999176,0.501960813999176);
#312=COLOUR_RGB('',0.501960813999176,0.501960813999176,0.501960813999176);
#313=COLOUR_RGB('',0.501960813999176,0.501960813999176,0.501960813999176);
#314=COLOUR_RGB('',0.501960813999176,0.501960813999176,0.501960813999176);
#315=COLOUR_RGB('',0.501960813999176,0.501960813999176,0.501960813999176);
#316=COLOUR_RGB('',0.501960813999176,0.501960813999176,0.501960813999176);
#317=COLOUR_RGB('',0.501960813999176,0.501960813999176,0.501960813999176);
#318=COLOUR_RGB('',0.501960813999176,0.501960813999176,0.501960813999176);
ENDSEC;
END-ISO-10303-21;
