ISO-10303-21;
HEADER;
FILE_DESCRIPTION((''),'1');
FILE_NAME('T:/02_3D_Field-HP\X2\FF71FF6FFF8CFF9F5916\X0\/02_Step_Field-HP\X2\FF71FF6FFF8CFF9F5916\X0\/21_CK\X2\FF8EFF9EFF70FF98FF9DFF78FF9EFF7CFF7DFF83FF91\X0\/08_\X2\FF7BFF72FF84FF9EFF9BFF6FFF784E38FF8AFF9EFF72FF84FF8EFF99FF80FF9E\X0\+\X2\4E38FF8AFF9EFF72FF84FF7CFF6CFF9DFF78\X0\/\X2\8FFD52A05206\X0\_20230904/ST16-SL4.stp','2023-09-04T02:02:53',(''),(''),'Spatial Interop R21 SP3','Kubotek KeyCreator 2011 V10.0.2 (22737)',' ');
FILE_SCHEMA(('automotive_design'));
ENDSEC;
DATA;
#1=MECHANICAL_DESIGN_GEOMETRIC_PRESENTATION_REPRESENTATION(' ',(#10,#11,#12,#13,#14,#15,#16,#17,#18,#19,#20,#21,#22,#23,#24),#6);
#2=PRODUCT_DEFINITION_CONTEXT('',#25,'design');
#3=APPLICATION_PROTOCOL_DEFINITION('INTERNATIONAL STANDARD','automotive_design',1994,#25);
#4=PRODUCT_CATEGORY_RELATIONSHIP('NONE','NONE',#26,#27);
#5=SHAPE_DEFINITION_REPRESENTATION(#28,#29);
#6= (GEOMETRIC_REPRESENTATION_CONTEXT(3)GLOBAL_UNCERTAINTY_ASSIGNED_CONTEXT((#32))GLOBAL_UNIT_ASSIGNED_CONTEXT((#34,#35,#36))REPRESENTATION_CONTEXT('NONE','WORKSPACE'));
#10=STYLED_ITEM('',(#38,#39),#40);
#11=STYLED_ITEM('',(#41),#42);
#12=STYLED_ITEM('',(#43,#44),#45);
#13=STYLED_ITEM('',(#46,#47),#48);
#14=STYLED_ITEM('',(#49,#50),#51);
#15=STYLED_ITEM('',(#52,#53),#54);
#16=STYLED_ITEM('',(#55),#56);
#17=STYLED_ITEM('',(#57),#58);
#18=STYLED_ITEM('',(#59),#60);
#19=STYLED_ITEM('',(#61,#62),#63);
#20=STYLED_ITEM('',(#64),#65);
#21=STYLED_ITEM('',(#66),#67);
#22=STYLED_ITEM('',(#68),#69);
#23=STYLED_ITEM('',(#70,#71),#72);
#24=STYLED_ITEM('',(#73,#74),#75);
#25=APPLICATION_CONTEXT(' ');
#26=PRODUCT_CATEGORY('part','NONE');
#27=PRODUCT_RELATED_PRODUCT_CATEGORY('detail',' ',(#76));
#28=PRODUCT_DEFINITION_SHAPE('NONE','NONE',#77);
#29=ADVANCED_BREP_SHAPE_REPRESENTATION('240[2]',(#63,#78),#6);
#32=UNCERTAINTY_MEASURE_WITH_UNIT(LENGTH_MEASURE(1.0E-006),#34,'','');
#34= (CONVERSION_BASED_UNIT('MILLIMETRE',#81)LENGTH_UNIT()NAMED_UNIT(#84));
#35= (NAMED_UNIT(#86)PLANE_ANGLE_UNIT()SI_UNIT($,.RADIAN.));
#36= (NAMED_UNIT(#86)SOLID_ANGLE_UNIT()SI_UNIT($,.STERADIAN.));
#38=PRESENTATION_STYLE_ASSIGNMENT((#92));
#39=PRESENTATION_STYLE_ASSIGNMENT((#93));
#40=ADVANCED_FACE('240[2]',(#94,#95),#96,.T.);
#41=PRESENTATION_STYLE_ASSIGNMENT((#97));
#42=EDGE_CURVE('240[2]',#98,#98,#99,.T.);
#43=PRESENTATION_STYLE_ASSIGNMENT((#100));
#44=PRESENTATION_STYLE_ASSIGNMENT((#101));
#45=ADVANCED_FACE('240[2]',(#102,#103),#104,.T.);
#46=PRESENTATION_STYLE_ASSIGNMENT((#105));
#47=PRESENTATION_STYLE_ASSIGNMENT((#106));
#48=ADVANCED_FACE('240[2]',(#107,#108),#109,.T.);
#49=PRESENTATION_STYLE_ASSIGNMENT((#110));
#50=PRESENTATION_STYLE_ASSIGNMENT((#111));
#51=ADVANCED_FACE('240[2]',(#112,#113),#114,.F.);
#52=PRESENTATION_STYLE_ASSIGNMENT((#115));
#53=PRESENTATION_STYLE_ASSIGNMENT((#116));
#54=ADVANCED_FACE('240[2]',(#117,#118),#119,.T.);
#55=PRESENTATION_STYLE_ASSIGNMENT((#120));
#56=EDGE_CURVE('240[2]',#121,#121,#122,.T.);
#57=PRESENTATION_STYLE_ASSIGNMENT((#123));
#58=EDGE_CURVE('240[2]',#124,#124,#125,.T.);
#59=PRESENTATION_STYLE_ASSIGNMENT((#126));
#60=EDGE_CURVE('240[2]',#127,#127,#128,.T.);
#61=PRESENTATION_STYLE_ASSIGNMENT((#129));
#62=PRESENTATION_STYLE_ASSIGNMENT((#130));
#63=MANIFOLD_SOLID_BREP('240[2]',#131);
#64=PRESENTATION_STYLE_ASSIGNMENT((#132));
#65=EDGE_CURVE('240[2]',#133,#133,#134,.T.);
#66=PRESENTATION_STYLE_ASSIGNMENT((#135));
#67=EDGE_CURVE('240[2]',#136,#136,#137,.T.);
#68=PRESENTATION_STYLE_ASSIGNMENT((#138));
#69=EDGE_CURVE('240[2]',#139,#139,#140,.T.);
#70=PRESENTATION_STYLE_ASSIGNMENT((#141));
#71=PRESENTATION_STYLE_ASSIGNMENT((#142));
#72=ADVANCED_FACE('240[2]',(#143,#144),#145,.T.);
#73=PRESENTATION_STYLE_ASSIGNMENT((#146));
#74=PRESENTATION_STYLE_ASSIGNMENT((#147));
#75=ADVANCED_FACE('240[2]',(#148,#149),#150,.T.);
#76=PRODUCT('240[2]','240[2]','PART-240[2]-DESC',(#151));
#77=PRODUCT_DEFINITION('NONE','NONE',#152,#2);
#78=AXIS2_PLACEMENT_3D('',#153,#154,#155);
#81=LENGTH_MEASURE_WITH_UNIT(LENGTH_MEASURE(1.0),#156);
#84=DIMENSIONAL_EXPONENTS(1.0,0.0,0.0,0.0,0.0,0.0,0.0);
#86=DIMENSIONAL_EXPONENTS(0.0,0.0,0.0,0.0,0.0,0.0,0.0);
#92=SURFACE_STYLE_USAGE(.BOTH.,#157);
#93=CURVE_STYLE('',#158,POSITIVE_LENGTH_MEASURE(1000.0),#159);
#94=FACE_BOUND('',#160,.T.);
#95=FACE_OUTER_BOUND('',#161,.T.);
#96=PLANE('',#162);
#97=CURVE_STYLE('',#163,POSITIVE_LENGTH_MEASURE(1000.0),#164);
#98=VERTEX_POINT('',#165);
#99=CIRCLE('',#166,5.99999999999986);
#100=SURFACE_STYLE_USAGE(.BOTH.,#167);
#101=CURVE_STYLE('',#168,POSITIVE_LENGTH_MEASURE(1000.0),#169);
#102=FACE_BOUND('',#170,.T.);
#103=FACE_BOUND('',#171,.T.);
#104=CONICAL_SURFACE('',#172,4.84529946162072,0.523598775598279);
#105=SURFACE_STYLE_USAGE(.BOTH.,#173);
#106=CURVE_STYLE('',#174,POSITIVE_LENGTH_MEASURE(1000.0),#175);
#107=FACE_OUTER_BOUND('',#176,.T.);
#108=FACE_BOUND('',#177,.T.);
#109=PLANE('',#178);
#110=SURFACE_STYLE_USAGE(.BOTH.,#179);
#111=CURVE_STYLE('',#180,POSITIVE_LENGTH_MEASURE(1000.0),#181);
#112=FACE_BOUND('',#182,.T.);
#113=FACE_BOUND('',#183,.T.);
#114=CYLINDRICAL_SURFACE('',#184,2.00000000000014);
#115=SURFACE_STYLE_USAGE(.BOTH.,#185);
#116=CURVE_STYLE('',#186,POSITIVE_LENGTH_MEASURE(1000.0),#187);
#117=FACE_BOUND('',#188,.T.);
#118=FACE_BOUND('',#189,.T.);
#119=CYLINDRICAL_SURFACE('',#190,8.00000000000001);
#120=CURVE_STYLE('',#191,POSITIVE_LENGTH_MEASURE(1000.0),#192);
#121=VERTEX_POINT('',#193);
#122=CIRCLE('',#194,8.0);
#123=CURVE_STYLE('',#195,POSITIVE_LENGTH_MEASURE(1000.0),#196);
#124=VERTEX_POINT('',#197);
#125=CIRCLE('',#198,1.99999999999993);
#126=CURVE_STYLE('',#199,POSITIVE_LENGTH_MEASURE(1000.0),#200);
#127=VERTEX_POINT('',#201);
#128=CIRCLE('',#202,3.69059892324159);
#129=SURFACE_STYLE_USAGE(.BOTH.,#203);
#130=CURVE_STYLE('',#204,POSITIVE_LENGTH_MEASURE(1000.0),#205);
#131=CLOSED_SHELL('',(#48,#54,#72,#75,#45,#40,#51));
#132=CURVE_STYLE('',#206,POSITIVE_LENGTH_MEASURE(1000.0),#207);
#133=VERTEX_POINT('',#208);
#134=CIRCLE('',#209,8.00000000000001);
#135=CURVE_STYLE('',#210,POSITIVE_LENGTH_MEASURE(1000.0),#211);
#136=VERTEX_POINT('',#212);
#137=CIRCLE('',#213,6.0);
#138=CURVE_STYLE('',#214,POSITIVE_LENGTH_MEASURE(1000.0),#215);
#139=VERTEX_POINT('',#216);
#140=CIRCLE('',#217,2.00000000000035);
#141=SURFACE_STYLE_USAGE(.BOTH.,#218);
#142=CURVE_STYLE('',#219,POSITIVE_LENGTH_MEASURE(1000.0),#220);
#143=FACE_BOUND('',#221,.T.);
#144=FACE_BOUND('',#222,.T.);
#145=CONICAL_SURFACE('',#223,7.00000000000001,0.785398163397473);
#146=SURFACE_STYLE_USAGE(.BOTH.,#224);
#147=CURVE_STYLE('',#225,POSITIVE_LENGTH_MEASURE(1000.0),#226);
#148=FACE_BOUND('',#227,.T.);
#149=FACE_BOUND('',#228,.T.);
#150=CYLINDRICAL_SURFACE('',#229,5.99999999999993);
#151=PRODUCT_CONTEXT('',#25,'mechanical');
#152=PRODUCT_DEFINITION_FORMATION_WITH_SPECIFIED_SOURCE(' ','NONE',#76,.NOT_KNOWN.);
#153=CARTESIAN_POINT('',(0.0,0.0,0.0));
#154=DIRECTION('',(0.0,0.0,1.0));
#155=DIRECTION('',(1.0,0.0,0.0));
#156= (NAMED_UNIT(#84)LENGTH_UNIT()SI_UNIT(.MILLI.,.METRE.));
#157=SURFACE_SIDE_STYLE('',(#231));
#158=DRAUGHTING_PRE_DEFINED_CURVE_FONT('continuous');
#159=COLOUR_RGB('',0.501960813999176,0.501960813999176,0.501960813999176);
#160=EDGE_LOOP('',(#232));
#161=EDGE_LOOP('',(#233));
#162=AXIS2_PLACEMENT_3D('',#234,#235,#236);
#163=DRAUGHTING_PRE_DEFINED_CURVE_FONT('continuous');
#164=COLOUR_RGB('',0.501960813999176,0.501960813999176,0.501960813999176);
#165=CARTESIAN_POINT('',(-2.44929359829455E-016,5.99999999999986,3.99999999999974));
#166=AXIS2_PLACEMENT_3D('',#237,#238,#239);
#167=SURFACE_SIDE_STYLE('',(#240));
#168=DRAUGHTING_PRE_DEFINED_CURVE_FONT('continuous');
#169=COLOUR_RGB('',0.501960813999176,0.501960813999176,0.501960813999176);
#170=EDGE_LOOP('',(#241));
#171=EDGE_LOOP('',(#242));
#172=AXIS2_PLACEMENT_3D('',#243,#244,#245);
#173=SURFACE_SIDE_STYLE('',(#246));
#174=DRAUGHTING_PRE_DEFINED_CURVE_FONT('continuous');
#175=COLOUR_RGB('',0.501960813999176,0.501960813999176,0.501960813999176);
#176=EDGE_LOOP('',(#247));
#177=EDGE_LOOP('',(#248));
#178=AXIS2_PLACEMENT_3D('',#249,#250,#251);
#179=SURFACE_SIDE_STYLE('',(#252));
#180=DRAUGHTING_PRE_DEFINED_CURVE_FONT('continuous');
#181=COLOUR_RGB('',0.501960813999176,0.501960813999176,0.501960813999176);
#182=EDGE_LOOP('',(#253));
#183=EDGE_LOOP('',(#254));
#184=AXIS2_PLACEMENT_3D('',#255,#256,#257);
#185=SURFACE_SIDE_STYLE('',(#258));
#186=DRAUGHTING_PRE_DEFINED_CURVE_FONT('continuous');
#187=COLOUR_RGB('',0.501960813999176,0.501960813999176,0.501960813999176);
#188=EDGE_LOOP('',(#259));
#189=EDGE_LOOP('',(#260));
#190=AXIS2_PLACEMENT_3D('',#261,#262,#263);
#191=DRAUGHTING_PRE_DEFINED_CURVE_FONT('continuous');
#192=COLOUR_RGB('',0.501960813999176,0.501960813999176,0.501960813999176);
#193=CARTESIAN_POINT('',(-6.12323399573678E-015,7.99999999999999,100.0));
#194=AXIS2_PLACEMENT_3D('',#264,#265,#266);
#195=DRAUGHTING_PRE_DEFINED_CURVE_FONT('continuous');
#196=COLOUR_RGB('',0.501960813999176,0.501960813999176,0.501960813999176);
#197=CARTESIAN_POINT('',(0.0,1.99999999999993,0.0));
#198=AXIS2_PLACEMENT_3D('',#267,#268,#269);
#199=DRAUGHTING_PRE_DEFINED_CURVE_FONT('continuous');
#200=COLOUR_RGB('',0.501960813999176,0.501960813999176,0.501960813999176);
#201=CARTESIAN_POINT('',(2.36658271566304E-030,3.69059892324159,-4.2632564145606E-014));
#202=AXIS2_PLACEMENT_3D('',#270,#271,#272);
#203=SURFACE_SIDE_STYLE('',(#273));
#204=DRAUGHTING_PRE_DEFINED_CURVE_FONT('continuous');
#205=COLOUR_RGB('',0.501960813999176,0.501960813999176,0.501960813999176);
#206=DRAUGHTING_PRE_DEFINED_CURVE_FONT('continuous');
#207=COLOUR_RGB('',0.501960813999176,0.501960813999176,0.501960813999176);
#208=CARTESIAN_POINT('',(-1.46957615897684E-015,8.00000000000001,24.0000000000002));
#209=AXIS2_PLACEMENT_3D('',#274,#275,#276);
#210=DRAUGHTING_PRE_DEFINED_CURVE_FONT('continuous');
#211=COLOUR_RGB('',0.501960813999176,0.501960813999176,0.501960813999176);
#212=CARTESIAN_POINT('',(-1.34711147906211E-015,6.0,22.0000000000003));
#213=AXIS2_PLACEMENT_3D('',#277,#278,#279);
#214=DRAUGHTING_PRE_DEFINED_CURVE_FONT('continuous');
#215=COLOUR_RGB('',0.501960813999176,0.501960813999176,0.501960813999176);
#216=CARTESIAN_POINT('',(-6.12323399573678E-015,2.00000000000033,100.0));
#217=AXIS2_PLACEMENT_3D('',#280,#281,#282);
#218=SURFACE_SIDE_STYLE('',(#283));
#219=DRAUGHTING_PRE_DEFINED_CURVE_FONT('continuous');
#220=COLOUR_RGB('',0.501960813999176,0.501960813999176,0.501960813999176);
#221=EDGE_LOOP('',(#284));
#222=EDGE_LOOP('',(#285));
#223=AXIS2_PLACEMENT_3D('',#286,#287,#288);
#224=SURFACE_SIDE_STYLE('',(#289));
#225=DRAUGHTING_PRE_DEFINED_CURVE_FONT('continuous');
#226=COLOUR_RGB('',0.501960813999176,0.501960813999176,0.501960813999176);
#227=EDGE_LOOP('',(#290));
#228=EDGE_LOOP('',(#291));
#229=AXIS2_PLACEMENT_3D('',#292,#293,#294);
#231=SURFACE_STYLE_FILL_AREA(#295);
#232=ORIENTED_EDGE('',*,*,#58,.F.);
#233=ORIENTED_EDGE('',*,*,#60,.T.);
#234=CARTESIAN_POINT('',(1.57772181044202E-030,2.84529946162076,-2.8421709430404E-014));
#235=DIRECTION('',(6.12323399573677E-017,-2.50949677693262E-014,-1.0));
#236=DIRECTION('',(1.5317964449398E-030,1.0,-2.50949677693262E-014));
#237=CARTESIAN_POINT('',(-2.44929359829455E-016,-4.89858719658909E-016,3.99999999999974));
#238=DIRECTION('',(6.12323399573677E-017,1.22464679914735E-016,-1.0));
#239=DIRECTION('',(-1.23259516440783E-032,1.0,1.22464679914735E-016));
#240=SURFACE_STYLE_FILL_AREA(#296);
#241=ORIENTED_EDGE('',*,*,#60,.F.);
#242=ORIENTED_EDGE('',*,*,#42,.T.);
#243=CARTESIAN_POINT('',(-1.22464679914726E-016,-2.44929359829453E-016,1.99999999999986));
#244=DIRECTION('',(-6.12323399573677E-017,-1.22464679914735E-016,1.0));
#245=DIRECTION('',(-1.23259516440783E-032,1.0,1.22464679914735E-016));
#246=SURFACE_STYLE_FILL_AREA(#297);
#247=ORIENTED_EDGE('',*,*,#56,.F.);
#248=ORIENTED_EDGE('',*,*,#69,.T.);
#249=CARTESIAN_POINT('',(-6.12323399573678E-015,5.00000000000016,100.0));
#250=DIRECTION('',(-6.12323399573677E-017,-1.22464679914735E-016,1.0));
#251=DIRECTION('',(1.23259516440783E-032,-1.0,-1.22464679914735E-016));
#252=SURFACE_STYLE_FILL_AREA(#298);
#253=ORIENTED_EDGE('',*,*,#69,.F.);
#254=ORIENTED_EDGE('',*,*,#58,.T.);
#255=CARTESIAN_POINT('',(-3.06161699786839E-015,-6.12323399573678E-015,50.0000000000001));
#256=DIRECTION('',(6.12323399573677E-017,1.22464679914735E-016,-1.0));
#257=DIRECTION('',(-1.23259516440783E-032,1.0,1.22464679914735E-016));
#258=SURFACE_STYLE_FILL_AREA(#299);
#259=ORIENTED_EDGE('',*,*,#65,.F.);
#260=ORIENTED_EDGE('',*,*,#56,.T.);
#261=CARTESIAN_POINT('',(-3.79640507735681E-015,-7.59281015471361E-015,62.0000000000002));
#262=DIRECTION('',(6.12323399573676E-017,1.22464679914735E-016,-1.0));
#263=DIRECTION('',(-1.23259516440783E-032,1.0,1.22464679914735E-016));
#264=CARTESIAN_POINT('',(-6.12323399573678E-015,-1.22464679914736E-014,100.0));
#265=DIRECTION('',(6.12323399573677E-017,1.22464679914735E-016,-1.0));
#266=DIRECTION('',(-1.23259516440783E-032,1.0,1.22464679914735E-016));
#267=CARTESIAN_POINT('',(0.0,0.0,0.0));
#268=DIRECTION('',(6.12323399573677E-017,1.22464679914735E-016,-1.0));
#269=DIRECTION('',(-1.23259516440783E-032,1.0,1.22464679914735E-016));
#270=CARTESIAN_POINT('',(2.36658271566304E-030,6.31088724176809E-030,-4.2632564145606E-014));
#271=DIRECTION('',(6.12323399573677E-017,1.22464679914735E-016,-1.0));
#272=DIRECTION('',(-1.23259516440783E-032,1.0,1.22464679914735E-016));
#273=SURFACE_STYLE_FILL_AREA(#300);
#274=CARTESIAN_POINT('',(-1.46957615897684E-015,-2.93915231795367E-015,24.0000000000002));
#275=DIRECTION('',(6.12323399573677E-017,1.22464679914735E-016,-1.0));
#276=DIRECTION('',(-1.23259516440783E-032,1.0,1.22464679914735E-016));
#277=CARTESIAN_POINT('',(-1.34711147906211E-015,-2.69422295812421E-015,22.0000000000003));
#278=DIRECTION('',(6.12323399573677E-017,1.22464679914735E-016,-1.0));
#279=DIRECTION('',(-1.23259516440783E-032,1.0,1.22464679914735E-016));
#280=CARTESIAN_POINT('',(-6.12323399573678E-015,-1.22464679914736E-014,100.0));
#281=DIRECTION('',(6.12323399573677E-017,1.22464679914735E-016,-1.0));
#282=DIRECTION('',(-1.23259516440783E-032,1.0,1.22464679914735E-016));
#283=SURFACE_STYLE_FILL_AREA(#301);
#284=ORIENTED_EDGE('',*,*,#67,.F.);
#285=ORIENTED_EDGE('',*,*,#65,.T.);
#286=CARTESIAN_POINT('',(-1.40834381901947E-015,-2.81668763803894E-015,23.0000000000002));
#287=DIRECTION('',(-6.12323399573677E-017,-1.22464679914735E-016,1.0));
#288=DIRECTION('',(-1.23259516440783E-032,1.0,1.22464679914735E-016));
#289=SURFACE_STYLE_FILL_AREA(#302);
#290=ORIENTED_EDGE('',*,*,#42,.F.);
#291=ORIENTED_EDGE('',*,*,#67,.T.);
#292=CARTESIAN_POINT('',(-7.96020419445781E-016,-1.59204083889156E-015,13.0));
#293=DIRECTION('',(6.12323399573677E-017,1.22464679914735E-016,-1.0));
#294=DIRECTION('',(-1.23259516440783E-032,1.0,1.22464679914735E-016));
#295=FILL_AREA_STYLE('',(#303));
#296=FILL_AREA_STYLE('',(#304));
#297=FILL_AREA_STYLE('',(#305));
#298=FILL_AREA_STYLE('',(#306));
#299=FILL_AREA_STYLE('',(#307));
#300=FILL_AREA_STYLE('',(#308));
#301=FILL_AREA_STYLE('',(#309));
#302=FILL_AREA_STYLE('',(#310));
#303=FILL_AREA_STYLE_COLOUR('',#311);
#304=FILL_AREA_STYLE_COLOUR('',#312);
#305=FILL_AREA_STYLE_COLOUR('',#313);
#306=FILL_AREA_STYLE_COLOUR('',#314);
#307=FILL_AREA_STYLE_COLOUR('',#315);
#308=FILL_AREA_STYLE_COLOUR('',#316);
#309=FILL_AREA_STYLE_COLOUR('',#317);
#310=FILL_AREA_STYLE_COLOUR('',#318);
#311=COLOUR_RGB('',0.501960813999176,0.501960813999176,0.501960813999176);
#312=COLOUR_RGB('',0.501960813999176,0.501960813999176,0.501960813999176);
#313=COLOUR_RGB('',0.501960813999176,0.501960813999176,0.501960813999176);
#314=COLOUR_RGB('',0.501960813999176,0.501960813999176,0.501960813999176);
#315=COLOUR_RGB('',0.501960813999176,0.501960813999176,0.501960813999176);
#316=COLOUR_RGB('',0.501960813999176,0.501960813999176,0.501960813999176);
#317=COLOUR_RGB('',0.501960813999176,0.501960813999176,0.501960813999176);
#318=COLOUR_RGB('',0.501960813999176,0.501960813999176,0.501960813999176);
ENDSEC;
END-ISO-10303-21;
