ISO-10303-21;
HEADER;
FILE_DESCRIPTION((''),'1');
FILE_NAME('T:/02_3D_Field-HP\X2\FF71FF6FFF8CFF9F5916\X0\/02_Step_Field-HP\X2\FF71FF6FFF8CFF9F5916\X0\/21_CK\X2\FF8EFF9EFF70FF98FF9DFF78FF9EFF7CFF7DFF83FF91\X0\/08_\X2\FF7BFF72FF84FF9EFF9BFF6FFF784E38FF8AFF9EFF72FF84FF8EFF99FF80FF9E\X0\+\X2\4E38FF8AFF9EFF72FF84FF7CFF6CFF9DFF78\X0\/\X2\8FFD52A05206\X0\_20230904/ST16-SL4.5.stp','2023-09-04T01:36:07',(''),(''),'Spatial Interop R21 SP3','Kubotek KeyCreator 2011 V10.0.2 (22737)',' ');
FILE_SCHEMA(('automotive_design'));
ENDSEC;
DATA;
#1=MECHANICAL_DESIGN_GEOMETRIC_PRESENTATION_REPRESENTATION(' ',(#10,#11,#12,#13,#14,#15,#16,#17,#18,#19,#20,#21,#22,#23,#24),#6);
#2=PRODUCT_DEFINITION_CONTEXT('',#25,'design');
#3=APPLICATION_PROTOCOL_DEFINITION('INTERNATIONAL STANDARD','automotive_design',1994,#25);
#4=PRODUCT_CATEGORY_RELATIONSHIP('NONE','NONE',#26,#27);
#5=SHAPE_DEFINITION_REPRESENTATION(#28,#29);
#6= (GEOMETRIC_REPRESENTATION_CONTEXT(3)GLOBAL_UNCERTAINTY_ASSIGNED_CONTEXT((#32))GLOBAL_UNIT_ASSIGNED_CONTEXT((#34,#35,#36))REPRESENTATION_CONTEXT('NONE','WORKSPACE'));
#10=STYLED_ITEM('',(#38),#39);
#11=STYLED_ITEM('',(#40,#41),#42);
#12=STYLED_ITEM('',(#43,#44),#45);
#13=STYLED_ITEM('',(#46,#47),#48);
#14=STYLED_ITEM('',(#49),#50);
#15=STYLED_ITEM('',(#51),#52);
#16=STYLED_ITEM('',(#53,#54),#55);
#17=STYLED_ITEM('',(#56,#57),#58);
#18=STYLED_ITEM('',(#59),#60);
#19=STYLED_ITEM('',(#61,#62),#63);
#20=STYLED_ITEM('',(#64),#65);
#21=STYLED_ITEM('',(#66),#67);
#22=STYLED_ITEM('',(#68,#69),#70);
#23=STYLED_ITEM('',(#71,#72),#73);
#24=STYLED_ITEM('',(#74),#75);
#25=APPLICATION_CONTEXT(' ');
#26=PRODUCT_CATEGORY('part','NONE');
#27=PRODUCT_RELATED_PRODUCT_CATEGORY('detail',' ',(#76));
#28=PRODUCT_DEFINITION_SHAPE('NONE','NONE',#77);
#29=ADVANCED_BREP_SHAPE_REPRESENTATION('240[2]',(#42,#78),#6);
#32=UNCERTAINTY_MEASURE_WITH_UNIT(LENGTH_MEASURE(1.0E-006),#34,'','');
#34= (CONVERSION_BASED_UNIT('MILLIMETRE',#81)LENGTH_UNIT()NAMED_UNIT(#84));
#35= (NAMED_UNIT(#86)PLANE_ANGLE_UNIT()SI_UNIT($,.RADIAN.));
#36= (NAMED_UNIT(#86)SOLID_ANGLE_UNIT()SI_UNIT($,.STERADIAN.));
#38=PRESENTATION_STYLE_ASSIGNMENT((#92));
#39=EDGE_CURVE('240[2]',#93,#93,#94,.T.);
#40=PRESENTATION_STYLE_ASSIGNMENT((#95));
#41=PRESENTATION_STYLE_ASSIGNMENT((#96));
#42=MANIFOLD_SOLID_BREP('240[2]',#97);
#43=PRESENTATION_STYLE_ASSIGNMENT((#98));
#44=PRESENTATION_STYLE_ASSIGNMENT((#99));
#45=ADVANCED_FACE('240[2]',(#100,#101),#102,.T.);
#46=PRESENTATION_STYLE_ASSIGNMENT((#103));
#47=PRESENTATION_STYLE_ASSIGNMENT((#104));
#48=ADVANCED_FACE('240[2]',(#105,#106),#107,.T.);
#49=PRESENTATION_STYLE_ASSIGNMENT((#108));
#50=EDGE_CURVE('240[2]',#109,#109,#110,.T.);
#51=PRESENTATION_STYLE_ASSIGNMENT((#111));
#52=EDGE_CURVE('240[2]',#112,#112,#113,.T.);
#53=PRESENTATION_STYLE_ASSIGNMENT((#114));
#54=PRESENTATION_STYLE_ASSIGNMENT((#115));
#55=ADVANCED_FACE('240[2]',(#116,#117),#118,.T.);
#56=PRESENTATION_STYLE_ASSIGNMENT((#119));
#57=PRESENTATION_STYLE_ASSIGNMENT((#120));
#58=ADVANCED_FACE('240[2]',(#121,#122),#123,.F.);
#59=PRESENTATION_STYLE_ASSIGNMENT((#124));
#60=EDGE_CURVE('240[2]',#125,#125,#126,.T.);
#61=PRESENTATION_STYLE_ASSIGNMENT((#127));
#62=PRESENTATION_STYLE_ASSIGNMENT((#128));
#63=ADVANCED_FACE('240[2]',(#129,#130),#131,.T.);
#64=PRESENTATION_STYLE_ASSIGNMENT((#132));
#65=EDGE_CURVE('240[2]',#133,#133,#134,.T.);
#66=PRESENTATION_STYLE_ASSIGNMENT((#135));
#67=EDGE_CURVE('240[2]',#136,#136,#137,.T.);
#68=PRESENTATION_STYLE_ASSIGNMENT((#138));
#69=PRESENTATION_STYLE_ASSIGNMENT((#139));
#70=ADVANCED_FACE('240[2]',(#140,#141),#142,.T.);
#71=PRESENTATION_STYLE_ASSIGNMENT((#143));
#72=PRESENTATION_STYLE_ASSIGNMENT((#144));
#73=ADVANCED_FACE('240[2]',(#145,#146),#147,.T.);
#74=PRESENTATION_STYLE_ASSIGNMENT((#148));
#75=EDGE_CURVE('240[2]',#149,#149,#150,.T.);
#76=PRODUCT('240[2]','240[2]','PART-240[2]-DESC',(#151));
#77=PRODUCT_DEFINITION('NONE','NONE',#152,#2);
#78=AXIS2_PLACEMENT_3D('',#153,#154,#155);
#81=LENGTH_MEASURE_WITH_UNIT(LENGTH_MEASURE(1.0),#156);
#84=DIMENSIONAL_EXPONENTS(1.0,0.0,0.0,0.0,0.0,0.0,0.0);
#86=DIMENSIONAL_EXPONENTS(0.0,0.0,0.0,0.0,0.0,0.0,0.0);
#92=CURVE_STYLE('',#157,POSITIVE_LENGTH_MEASURE(1000.0),#158);
#93=VERTEX_POINT('',#159);
#94=CIRCLE('',#160,8.0);
#95=SURFACE_STYLE_USAGE(.BOTH.,#161);
#96=CURVE_STYLE('',#162,POSITIVE_LENGTH_MEASURE(1000.0),#163);
#97=CLOSED_SHELL('',(#55,#70,#73,#63,#45,#48,#58));
#98=SURFACE_STYLE_USAGE(.BOTH.,#164);
#99=CURVE_STYLE('',#165,POSITIVE_LENGTH_MEASURE(1000.0),#166);
#100=FACE_BOUND('',#167,.T.);
#101=FACE_BOUND('',#168,.T.);
#102=CONICAL_SURFACE('',#169,4.84529946162081,0.523598775598279);
#103=SURFACE_STYLE_USAGE(.BOTH.,#170);
#104=CURVE_STYLE('',#171,POSITIVE_LENGTH_MEASURE(1000.0),#172);
#105=FACE_BOUND('',#173,.T.);
#106=FACE_OUTER_BOUND('',#174,.T.);
#107=PLANE('',#175);
#108=CURVE_STYLE('',#176,POSITIVE_LENGTH_MEASURE(1000.0),#177);
#109=VERTEX_POINT('',#178);
#110=CIRCLE('',#179,6.0);
#111=CURVE_STYLE('',#180,POSITIVE_LENGTH_MEASURE(1000.0),#181);
#112=VERTEX_POINT('',#182);
#113=CIRCLE('',#183,2.25000000000022);
#114=SURFACE_STYLE_USAGE(.BOTH.,#184);
#115=CURVE_STYLE('',#185,POSITIVE_LENGTH_MEASURE(1000.0),#186);
#116=FACE_OUTER_BOUND('',#187,.T.);
#117=FACE_BOUND('',#188,.T.);
#118=PLANE('',#189);
#119=SURFACE_STYLE_USAGE(.BOTH.,#190);
#120=CURVE_STYLE('',#191,POSITIVE_LENGTH_MEASURE(1000.0),#192);
#121=FACE_BOUND('',#193,.T.);
#122=FACE_BOUND('',#194,.T.);
#123=CYLINDRICAL_SURFACE('',#195,2.25000000000008);
#124=CURVE_STYLE('',#196,POSITIVE_LENGTH_MEASURE(1000.0),#197);
#125=VERTEX_POINT('',#198);
#126=CIRCLE('',#199,5.99999999999986);
#127=SURFACE_STYLE_USAGE(.BOTH.,#200);
#128=CURVE_STYLE('',#201,POSITIVE_LENGTH_MEASURE(1000.0),#202);
#129=FACE_BOUND('',#203,.T.);
#130=FACE_BOUND('',#204,.T.);
#131=CYLINDRICAL_SURFACE('',#205,5.99999999999993);
#132=CURVE_STYLE('',#206,POSITIVE_LENGTH_MEASURE(1000.0),#207);
#133=VERTEX_POINT('',#208);
#134=CIRCLE('',#209,2.24999999999994);
#135=CURVE_STYLE('',#210,POSITIVE_LENGTH_MEASURE(1000.0),#211);
#136=VERTEX_POINT('',#212);
#137=CIRCLE('',#213,8.00000000000001);
#138=SURFACE_STYLE_USAGE(.BOTH.,#214);
#139=CURVE_STYLE('',#215,POSITIVE_LENGTH_MEASURE(1000.0),#216);
#140=FACE_BOUND('',#217,.T.);
#141=FACE_BOUND('',#218,.T.);
#142=CYLINDRICAL_SURFACE('',#219,8.00000000000001);
#143=SURFACE_STYLE_USAGE(.BOTH.,#220);
#144=CURVE_STYLE('',#221,POSITIVE_LENGTH_MEASURE(1000.0),#222);
#145=FACE_BOUND('',#223,.T.);
#146=FACE_BOUND('',#224,.T.);
#147=CONICAL_SURFACE('',#225,7.00000000000001,0.785398163397473);
#148=CURVE_STYLE('',#226,POSITIVE_LENGTH_MEASURE(1000.0),#227);
#149=VERTEX_POINT('',#228);
#150=CIRCLE('',#229,3.69059892324176);
#151=PRODUCT_CONTEXT('',#25,'mechanical');
#152=PRODUCT_DEFINITION_FORMATION_WITH_SPECIFIED_SOURCE(' ','NONE',#76,.NOT_KNOWN.);
#153=CARTESIAN_POINT('',(0.0,0.0,0.0));
#154=DIRECTION('',(0.0,0.0,1.0));
#155=DIRECTION('',(1.0,0.0,0.0));
#156= (NAMED_UNIT(#84)LENGTH_UNIT()SI_UNIT(.MILLI.,.METRE.));
#157=DRAUGHTING_PRE_DEFINED_CURVE_FONT('continuous');
#158=COLOUR_RGB('',0.501960813999176,0.501960813999176,0.501960813999176);
#159=CARTESIAN_POINT('',(-6.12323399573677E-015,7.99999999999999,100.0));
#160=AXIS2_PLACEMENT_3D('',#231,#232,#233);
#161=SURFACE_SIDE_STYLE('',(#234));
#162=DRAUGHTING_PRE_DEFINED_CURVE_FONT('continuous');
#163=COLOUR_RGB('',0.501960813999176,0.501960813999176,0.501960813999176);
#164=SURFACE_SIDE_STYLE('',(#235));
#165=DRAUGHTING_PRE_DEFINED_CURVE_FONT('continuous');
#166=COLOUR_RGB('',0.501960813999176,0.501960813999176,0.501960813999176);
#167=EDGE_LOOP('',(#236));
#168=EDGE_LOOP('',(#237));
#169=AXIS2_PLACEMENT_3D('',#238,#239,#240);
#170=SURFACE_SIDE_STYLE('',(#241));
#171=DRAUGHTING_PRE_DEFINED_CURVE_FONT('continuous');
#172=COLOUR_RGB('',0.501960813999176,0.501960813999176,0.501960813999176);
#173=EDGE_LOOP('',(#242));
#174=EDGE_LOOP('',(#243));
#175=AXIS2_PLACEMENT_3D('',#244,#245,#246);
#176=DRAUGHTING_PRE_DEFINED_CURVE_FONT('continuous');
#177=COLOUR_RGB('',0.501960813999176,0.501960813999176,0.501960813999176);
#178=CARTESIAN_POINT('',(-1.34711147906209E-015,6.0,22.0));
#179=AXIS2_PLACEMENT_3D('',#247,#248,#249);
#180=DRAUGHTING_PRE_DEFINED_CURVE_FONT('continuous');
#181=COLOUR_RGB('',0.501960813999176,0.501960813999176,0.501960813999176);
#182=CARTESIAN_POINT('',(-6.12323399573677E-015,2.25000000000021,100.0));
#183=AXIS2_PLACEMENT_3D('',#250,#251,#252);
#184=SURFACE_SIDE_STYLE('',(#253));
#185=DRAUGHTING_PRE_DEFINED_CURVE_FONT('continuous');
#186=COLOUR_RGB('',0.501960813999176,0.501960813999176,0.501960813999176);
#187=EDGE_LOOP('',(#254));
#188=EDGE_LOOP('',(#255));
#189=AXIS2_PLACEMENT_3D('',#256,#257,#258);
#190=SURFACE_SIDE_STYLE('',(#259));
#191=DRAUGHTING_PRE_DEFINED_CURVE_FONT('continuous');
#192=COLOUR_RGB('',0.501960813999176,0.501960813999176,0.501960813999176);
#193=EDGE_LOOP('',(#260));
#194=EDGE_LOOP('',(#261));
#195=AXIS2_PLACEMENT_3D('',#262,#263,#264);
#196=DRAUGHTING_PRE_DEFINED_CURVE_FONT('continuous');
#197=COLOUR_RGB('',0.501960813999176,0.501960813999176,0.501960813999176);
#198=CARTESIAN_POINT('',(-2.4492935982944E-016,5.99999999999986,3.99999999999949));
#199=AXIS2_PLACEMENT_3D('',#265,#266,#267);
#200=SURFACE_SIDE_STYLE('',(#268));
#201=DRAUGHTING_PRE_DEFINED_CURVE_FONT('continuous');
#202=COLOUR_RGB('',0.501960813999176,0.501960813999176,0.501960813999176);
#203=EDGE_LOOP('',(#269));
#204=EDGE_LOOP('',(#270));
#205=AXIS2_PLACEMENT_3D('',#271,#272,#273);
#206=DRAUGHTING_PRE_DEFINED_CURVE_FONT('continuous');
#207=COLOUR_RGB('',0.501960813999176,0.501960813999176,0.501960813999176);
#208=CARTESIAN_POINT('',(2.36658271566304E-030,2.24999999999994,-4.2632564145606E-014));
#209=AXIS2_PLACEMENT_3D('',#274,#275,#276);
#210=DRAUGHTING_PRE_DEFINED_CURVE_FONT('continuous');
#211=COLOUR_RGB('',0.501960813999176,0.501960813999176,0.501960813999176);
#212=CARTESIAN_POINT('',(-1.46957615897682E-015,8.00000000000001,23.9999999999999));
#213=AXIS2_PLACEMENT_3D('',#277,#278,#279);
#214=SURFACE_SIDE_STYLE('',(#280));
#215=DRAUGHTING_PRE_DEFINED_CURVE_FONT('continuous');
#216=COLOUR_RGB('',0.501960813999176,0.501960813999176,0.501960813999176);
#217=EDGE_LOOP('',(#281));
#218=EDGE_LOOP('',(#282));
#219=AXIS2_PLACEMENT_3D('',#283,#284,#285);
#220=SURFACE_SIDE_STYLE('',(#286));
#221=DRAUGHTING_PRE_DEFINED_CURVE_FONT('continuous');
#222=COLOUR_RGB('',0.501960813999176,0.501960813999176,0.501960813999176);
#223=EDGE_LOOP('',(#287));
#224=EDGE_LOOP('',(#288));
#225=AXIS2_PLACEMENT_3D('',#289,#290,#291);
#226=DRAUGHTING_PRE_DEFINED_CURVE_FONT('continuous');
#227=COLOUR_RGB('',0.501960813999176,0.501960813999176,0.501960813999176);
#228=CARTESIAN_POINT('',(0.0,3.69059892324176,0.0));
#229=AXIS2_PLACEMENT_3D('',#292,#293,#294);
#231=CARTESIAN_POINT('',(-6.12323399573677E-015,-1.22464679914735E-014,100.0));
#232=DIRECTION('',(6.12323399573677E-017,1.22464679914735E-016,-1.0));
#233=DIRECTION('',(-1.23259516440783E-032,1.0,1.22464679914735E-016));
#234=SURFACE_STYLE_FILL_AREA(#295);
#235=SURFACE_STYLE_FILL_AREA(#296);
#236=ORIENTED_EDGE('',*,*,#75,.F.);
#237=ORIENTED_EDGE('',*,*,#60,.T.);
#238=CARTESIAN_POINT('',(-1.22464679914719E-016,-2.44929359829439E-016,1.99999999999974));
#239=DIRECTION('',(-6.12323399573677E-017,-1.22464679914735E-016,1.0));
#240=DIRECTION('',(-1.23259516440783E-032,1.0,1.22464679914735E-016));
#241=SURFACE_STYLE_FILL_AREA(#297);
#242=ORIENTED_EDGE('',*,*,#65,.F.);
#243=ORIENTED_EDGE('',*,*,#75,.T.);
#244=CARTESIAN_POINT('',(1.57772181044202E-030,2.97029946162085,-2.8421709430404E-014));
#245=DIRECTION('',(6.12323399573677E-017,2.97161034490379E-014,-1.0));
#246=DIRECTION('',(-1.82441370133056E-030,1.0,2.97161034490379E-014));
#247=CARTESIAN_POINT('',(-1.34711147906209E-015,-2.69422295812418E-015,22.0));
#248=DIRECTION('',(6.12323399573677E-017,1.22464679914735E-016,-1.0));
#249=DIRECTION('',(-1.23259516440783E-032,1.0,1.22464679914735E-016));
#250=CARTESIAN_POINT('',(-6.12323399573677E-015,-1.22464679914735E-014,100.0));
#251=DIRECTION('',(6.12323399573677E-017,1.22464679914735E-016,-1.0));
#252=DIRECTION('',(-1.23259516440783E-032,1.0,1.22464679914735E-016));
#253=SURFACE_STYLE_FILL_AREA(#298);
#254=ORIENTED_EDGE('',*,*,#39,.F.);
#255=ORIENTED_EDGE('',*,*,#52,.T.);
#256=CARTESIAN_POINT('',(-6.12323399573677E-015,5.1250000000001,100.0));
#257=DIRECTION('',(-6.12323399573677E-017,-1.22464679914735E-016,1.0));
#258=DIRECTION('',(1.23259516440783E-032,-1.0,-1.22464679914735E-016));
#259=SURFACE_STYLE_FILL_AREA(#299);
#260=ORIENTED_EDGE('',*,*,#52,.F.);
#261=ORIENTED_EDGE('',*,*,#65,.T.);
#262=CARTESIAN_POINT('',(-3.06161699786838E-015,-6.12323399573676E-015,50.0));
#263=DIRECTION('',(6.12323399573677E-017,1.22464679914735E-016,-1.0));
#264=DIRECTION('',(-1.23259516440783E-032,1.0,1.22464679914735E-016));
#265=CARTESIAN_POINT('',(-2.4492935982944E-016,-4.89858719658877E-016,3.99999999999949));
#266=DIRECTION('',(6.12323399573677E-017,1.22464679914735E-016,-1.0));
#267=DIRECTION('',(-1.23259516440783E-032,1.0,1.22464679914735E-016));
#268=SURFACE_STYLE_FILL_AREA(#300);
#269=ORIENTED_EDGE('',*,*,#60,.F.);
#270=ORIENTED_EDGE('',*,*,#50,.T.);
#271=CARTESIAN_POINT('',(-7.96020419445765E-016,-1.59204083889153E-015,12.9999999999998));
#272=DIRECTION('',(6.12323399573677E-017,1.22464679914735E-016,-1.0));
#273=DIRECTION('',(-1.23259516440783E-032,1.0,1.22464679914735E-016));
#274=CARTESIAN_POINT('',(2.36658271566304E-030,6.31088724176809E-030,-4.2632564145606E-014));
#275=DIRECTION('',(6.12323399573677E-017,1.22464679914735E-016,-1.0));
#276=DIRECTION('',(-1.23259516440783E-032,1.0,1.22464679914735E-016));
#277=CARTESIAN_POINT('',(-1.46957615897682E-015,-2.93915231795364E-015,23.9999999999999));
#278=DIRECTION('',(6.12323399573677E-017,1.22464679914735E-016,-1.0));
#279=DIRECTION('',(-1.23259516440783E-032,1.0,1.22464679914735E-016));
#280=SURFACE_STYLE_FILL_AREA(#301);
#281=ORIENTED_EDGE('',*,*,#67,.F.);
#282=ORIENTED_EDGE('',*,*,#39,.T.);
#283=CARTESIAN_POINT('',(-3.79640507735679E-015,-7.59281015471358E-015,62.0));
#284=DIRECTION('',(6.12323399573676E-017,1.22464679914735E-016,-1.0));
#285=DIRECTION('',(-1.23259516440783E-032,1.0,1.22464679914735E-016));
#286=SURFACE_STYLE_FILL_AREA(#302);
#287=ORIENTED_EDGE('',*,*,#50,.F.);
#288=ORIENTED_EDGE('',*,*,#67,.T.);
#289=CARTESIAN_POINT('',(-1.40834381901945E-015,-2.81668763803891E-015,23.0));
#290=DIRECTION('',(-6.12323399573677E-017,-1.22464679914735E-016,1.0));
#291=DIRECTION('',(-1.23259516440783E-032,1.0,1.22464679914735E-016));
#292=CARTESIAN_POINT('',(0.0,0.0,0.0));
#293=DIRECTION('',(6.12323399573677E-017,1.22464679914735E-016,-1.0));
#294=DIRECTION('',(-1.23259516440783E-032,1.0,1.22464679914735E-016));
#295=FILL_AREA_STYLE('',(#303));
#296=FILL_AREA_STYLE('',(#304));
#297=FILL_AREA_STYLE('',(#305));
#298=FILL_AREA_STYLE('',(#306));
#299=FILL_AREA_STYLE('',(#307));
#300=FILL_AREA_STYLE('',(#308));
#301=FILL_AREA_STYLE('',(#309));
#302=FILL_AREA_STYLE('',(#310));
#303=FILL_AREA_STYLE_COLOUR('',#311);
#304=FILL_AREA_STYLE_COLOUR('',#312);
#305=FILL_AREA_STYLE_COLOUR('',#313);
#306=FILL_AREA_STYLE_COLOUR('',#314);
#307=FILL_AREA_STYLE_COLOUR('',#315);
#308=FILL_AREA_STYLE_COLOUR('',#316);
#309=FILL_AREA_STYLE_COLOUR('',#317);
#310=FILL_AREA_STYLE_COLOUR('',#318);
#311=COLOUR_RGB('',0.501960813999176,0.501960813999176,0.501960813999176);
#312=COLOUR_RGB('',0.501960813999176,0.501960813999176,0.501960813999176);
#313=COLOUR_RGB('',0.501960813999176,0.501960813999176,0.501960813999176);
#314=COLOUR_RGB('',0.501960813999176,0.501960813999176,0.501960813999176);
#315=COLOUR_RGB('',0.501960813999176,0.501960813999176,0.501960813999176);
#316=COLOUR_RGB('',0.501960813999176,0.501960813999176,0.501960813999176);
#317=COLOUR_RGB('',0.501960813999176,0.501960813999176,0.501960813999176);
#318=COLOUR_RGB('',0.501960813999176,0.501960813999176,0.501960813999176);
ENDSEC;
END-ISO-10303-21;
