ISO-10303-21;
HEADER;
FILE_DESCRIPTION((''),'1');
FILE_NAME('T:/02_3D_Field-HP\X2\FF71FF6FFF8CFF9F5916\X0\/02_Step_Field-HP\X2\FF71FF6FFF8CFF9F5916\X0\/21_CK\X2\FF8EFF9EFF70FF98FF9DFF78FF9EFF7CFF7DFF83FF91\X0\/08_\X2\FF7BFF72FF84FF9EFF9BFF6FFF784E38FF8AFF9EFF72FF84FF8EFF99FF80FF9E\X0\+\X2\4E38FF8AFF9EFF72FF84FF7CFF6CFF9DFF78\X0\/\X2\8FFD52A05206\X0\_20230904/ST16-SL3.5.stp','2023-09-04T01:18:33',(''),(''),'Spatial Interop R21 SP3','Kubotek KeyCreator 2011 V10.0.2 (22737)',' ');
FILE_SCHEMA(('automotive_design'));
ENDSEC;
DATA;
#1=MECHANICAL_DESIGN_GEOMETRIC_PRESENTATION_REPRESENTATION(' ',(#10,#11,#12,#13,#14,#15,#16,#17,#18,#19,#20,#21,#22,#23,#24),#6);
#2=PRODUCT_DEFINITION_CONTEXT('',#25,'design');
#3=APPLICATION_PROTOCOL_DEFINITION('INTERNATIONAL STANDARD','automotive_design',1994,#25);
#4=PRODUCT_CATEGORY_RELATIONSHIP('NONE','NONE',#26,#27);
#5=SHAPE_DEFINITION_REPRESENTATION(#28,#29);
#6= (GEOMETRIC_REPRESENTATION_CONTEXT(3)GLOBAL_UNCERTAINTY_ASSIGNED_CONTEXT((#32))GLOBAL_UNIT_ASSIGNED_CONTEXT((#34,#35,#36))REPRESENTATION_CONTEXT('NONE','WORKSPACE'));
#10=STYLED_ITEM('',(#38),#39);
#11=STYLED_ITEM('',(#40),#41);
#12=STYLED_ITEM('',(#42),#43);
#13=STYLED_ITEM('',(#44,#45),#46);
#14=STYLED_ITEM('',(#47),#48);
#15=STYLED_ITEM('',(#49,#50),#51);
#16=STYLED_ITEM('',(#52,#53),#54);
#17=STYLED_ITEM('',(#55,#56),#57);
#18=STYLED_ITEM('',(#58,#59),#60);
#19=STYLED_ITEM('',(#61,#62),#63);
#20=STYLED_ITEM('',(#64),#65);
#21=STYLED_ITEM('',(#66),#67);
#22=STYLED_ITEM('',(#68),#69);
#23=STYLED_ITEM('',(#70,#71),#72);
#24=STYLED_ITEM('',(#73,#74),#75);
#25=APPLICATION_CONTEXT(' ');
#26=PRODUCT_CATEGORY('part','NONE');
#27=PRODUCT_RELATED_PRODUCT_CATEGORY('detail',' ',(#76));
#28=PRODUCT_DEFINITION_SHAPE('NONE','NONE',#77);
#29=ADVANCED_BREP_SHAPE_REPRESENTATION('240[2]',(#60,#78),#6);
#32=UNCERTAINTY_MEASURE_WITH_UNIT(LENGTH_MEASURE(1.0E-006),#34,'','');
#34= (CONVERSION_BASED_UNIT('MILLIMETRE',#81)LENGTH_UNIT()NAMED_UNIT(#84));
#35= (NAMED_UNIT(#86)PLANE_ANGLE_UNIT()SI_UNIT($,.RADIAN.));
#36= (NAMED_UNIT(#86)SOLID_ANGLE_UNIT()SI_UNIT($,.STERADIAN.));
#38=PRESENTATION_STYLE_ASSIGNMENT((#92));
#39=EDGE_CURVE('240[2]',#93,#93,#94,.T.);
#40=PRESENTATION_STYLE_ASSIGNMENT((#95));
#41=EDGE_CURVE('240[2]',#96,#96,#97,.T.);
#42=PRESENTATION_STYLE_ASSIGNMENT((#98));
#43=EDGE_CURVE('240[2]',#99,#99,#100,.T.);
#44=PRESENTATION_STYLE_ASSIGNMENT((#101));
#45=PRESENTATION_STYLE_ASSIGNMENT((#102));
#46=ADVANCED_FACE('240[2]',(#103,#104),#105,.T.);
#47=PRESENTATION_STYLE_ASSIGNMENT((#106));
#48=EDGE_CURVE('240[2]',#107,#107,#108,.T.);
#49=PRESENTATION_STYLE_ASSIGNMENT((#109));
#50=PRESENTATION_STYLE_ASSIGNMENT((#110));
#51=ADVANCED_FACE('240[2]',(#111,#112),#113,.T.);
#52=PRESENTATION_STYLE_ASSIGNMENT((#114));
#53=PRESENTATION_STYLE_ASSIGNMENT((#115));
#54=ADVANCED_FACE('240[2]',(#116,#117),#118,.T.);
#55=PRESENTATION_STYLE_ASSIGNMENT((#119));
#56=PRESENTATION_STYLE_ASSIGNMENT((#120));
#57=ADVANCED_FACE('240[2]',(#121,#122),#123,.T.);
#58=PRESENTATION_STYLE_ASSIGNMENT((#124));
#59=PRESENTATION_STYLE_ASSIGNMENT((#125));
#60=MANIFOLD_SOLID_BREP('240[2]',#126);
#61=PRESENTATION_STYLE_ASSIGNMENT((#127));
#62=PRESENTATION_STYLE_ASSIGNMENT((#128));
#63=ADVANCED_FACE('240[2]',(#129,#130),#131,.F.);
#64=PRESENTATION_STYLE_ASSIGNMENT((#132));
#65=EDGE_CURVE('240[2]',#133,#133,#134,.T.);
#66=PRESENTATION_STYLE_ASSIGNMENT((#135));
#67=EDGE_CURVE('240[2]',#136,#136,#137,.T.);
#68=PRESENTATION_STYLE_ASSIGNMENT((#138));
#69=EDGE_CURVE('240[2]',#139,#139,#140,.T.);
#70=PRESENTATION_STYLE_ASSIGNMENT((#141));
#71=PRESENTATION_STYLE_ASSIGNMENT((#142));
#72=ADVANCED_FACE('240[2]',(#143,#144),#145,.T.);
#73=PRESENTATION_STYLE_ASSIGNMENT((#146));
#74=PRESENTATION_STYLE_ASSIGNMENT((#147));
#75=ADVANCED_FACE('240[2]',(#148,#149),#150,.T.);
#76=PRODUCT('240[2]','240[2]','PART-240[2]-DESC',(#151));
#77=PRODUCT_DEFINITION('NONE','NONE',#152,#2);
#78=AXIS2_PLACEMENT_3D('',#153,#154,#155);
#81=LENGTH_MEASURE_WITH_UNIT(LENGTH_MEASURE(1.0),#156);
#84=DIMENSIONAL_EXPONENTS(1.0,0.0,0.0,0.0,0.0,0.0,0.0);
#86=DIMENSIONAL_EXPONENTS(0.0,0.0,0.0,0.0,0.0,0.0,0.0);
#92=CURVE_STYLE('',#157,POSITIVE_LENGTH_MEASURE(1000.0),#158);
#93=VERTEX_POINT('',#159);
#94=CIRCLE('',#160,8.0);
#95=CURVE_STYLE('',#161,POSITIVE_LENGTH_MEASURE(1000.0),#162);
#96=VERTEX_POINT('',#163);
#97=CIRCLE('',#164,5.99999999999986);
#98=CURVE_STYLE('',#165,POSITIVE_LENGTH_MEASURE(1000.0),#166);
#99=VERTEX_POINT('',#167);
#100=CIRCLE('',#168,3.69059892324159);
#101=SURFACE_STYLE_USAGE(.BOTH.,#169);
#102=CURVE_STYLE('',#170,POSITIVE_LENGTH_MEASURE(1000.0),#171);
#103=FACE_OUTER_BOUND('',#172,.T.);
#104=FACE_BOUND('',#173,.T.);
#105=PLANE('',#174);
#106=CURVE_STYLE('',#175,POSITIVE_LENGTH_MEASURE(1000.0),#176);
#107=VERTEX_POINT('',#177);
#108=CIRCLE('',#178,1.75000000000031);
#109=SURFACE_STYLE_USAGE(.BOTH.,#179);
#110=CURVE_STYLE('',#180,POSITIVE_LENGTH_MEASURE(1000.0),#181);
#111=FACE_BOUND('',#182,.T.);
#112=FACE_OUTER_BOUND('',#183,.T.);
#113=PLANE('',#184);
#114=SURFACE_STYLE_USAGE(.BOTH.,#185);
#115=CURVE_STYLE('',#186,POSITIVE_LENGTH_MEASURE(1000.0),#187);
#116=FACE_BOUND('',#188,.T.);
#117=FACE_BOUND('',#189,.T.);
#118=CYLINDRICAL_SURFACE('',#190,8.00000000000001);
#119=SURFACE_STYLE_USAGE(.BOTH.,#191);
#120=CURVE_STYLE('',#192,POSITIVE_LENGTH_MEASURE(1000.0),#193);
#121=FACE_BOUND('',#194,.T.);
#122=FACE_BOUND('',#195,.T.);
#123=CONICAL_SURFACE('',#196,7.00000000000001,0.785398163397473);
#124=SURFACE_STYLE_USAGE(.BOTH.,#197);
#125=CURVE_STYLE('',#198,POSITIVE_LENGTH_MEASURE(1000.0),#199);
#126=CLOSED_SHELL('',(#46,#54,#57,#75,#72,#51,#63));
#127=SURFACE_STYLE_USAGE(.BOTH.,#200);
#128=CURVE_STYLE('',#201,POSITIVE_LENGTH_MEASURE(1000.0),#202);
#129=FACE_BOUND('',#203,.T.);
#130=FACE_BOUND('',#204,.T.);
#131=CYLINDRICAL_SURFACE('',#205,1.75000000000017);
#132=CURVE_STYLE('',#206,POSITIVE_LENGTH_MEASURE(1000.0),#207);
#133=VERTEX_POINT('',#208);
#134=CIRCLE('',#209,6.0);
#135=CURVE_STYLE('',#210,POSITIVE_LENGTH_MEASURE(1000.0),#211);
#136=VERTEX_POINT('',#212);
#137=CIRCLE('',#213,1.75000000000003);
#138=CURVE_STYLE('',#214,POSITIVE_LENGTH_MEASURE(1000.0),#215);
#139=VERTEX_POINT('',#216);
#140=CIRCLE('',#217,8.00000000000001);
#141=SURFACE_STYLE_USAGE(.BOTH.,#218);
#142=CURVE_STYLE('',#219,POSITIVE_LENGTH_MEASURE(1000.0),#220);
#143=FACE_BOUND('',#221,.T.);
#144=FACE_BOUND('',#222,.T.);
#145=CONICAL_SURFACE('',#223,4.84529946162072,0.523598775598279);
#146=SURFACE_STYLE_USAGE(.BOTH.,#224);
#147=CURVE_STYLE('',#225,POSITIVE_LENGTH_MEASURE(1000.0),#226);
#148=FACE_BOUND('',#227,.T.);
#149=FACE_BOUND('',#228,.T.);
#150=CYLINDRICAL_SURFACE('',#229,5.99999999999993);
#151=PRODUCT_CONTEXT('',#25,'mechanical');
#152=PRODUCT_DEFINITION_FORMATION_WITH_SPECIFIED_SOURCE(' ','NONE',#76,.NOT_KNOWN.);
#153=CARTESIAN_POINT('',(0.0,0.0,0.0));
#154=DIRECTION('',(0.0,0.0,1.0));
#155=DIRECTION('',(1.0,0.0,0.0));
#156= (NAMED_UNIT(#84)LENGTH_UNIT()SI_UNIT(.MILLI.,.METRE.));
#157=DRAUGHTING_PRE_DEFINED_CURVE_FONT('continuous');
#158=COLOUR_RGB('',0.501960813999176,0.501960813999176,0.501960813999176);
#159=CARTESIAN_POINT('',(-6.12323399573678E-015,7.99999999999999,100.0));
#160=AXIS2_PLACEMENT_3D('',#231,#232,#233);
#161=DRAUGHTING_PRE_DEFINED_CURVE_FONT('continuous');
#162=COLOUR_RGB('',0.501960813999176,0.501960813999176,0.501960813999176);
#163=CARTESIAN_POINT('',(-2.44929359829458E-016,5.99999999999986,3.99999999999979));
#164=AXIS2_PLACEMENT_3D('',#234,#235,#236);
#165=DRAUGHTING_PRE_DEFINED_CURVE_FONT('continuous');
#166=COLOUR_RGB('',0.501960813999176,0.501960813999176,0.501960813999176);
#167=CARTESIAN_POINT('',(0.0,3.69059892324159,0.0));
#168=AXIS2_PLACEMENT_3D('',#237,#238,#239);
#169=SURFACE_SIDE_STYLE('',(#240));
#170=DRAUGHTING_PRE_DEFINED_CURVE_FONT('continuous');
#171=COLOUR_RGB('',0.501960813999176,0.501960813999176,0.501960813999176);
#172=EDGE_LOOP('',(#241));
#173=EDGE_LOOP('',(#242));
#174=AXIS2_PLACEMENT_3D('',#243,#244,#245);
#175=DRAUGHTING_PRE_DEFINED_CURVE_FONT('continuous');
#176=COLOUR_RGB('',0.501960813999176,0.501960813999176,0.501960813999176);
#177=CARTESIAN_POINT('',(-6.12323399573678E-015,1.75000000000029,100.0));
#178=AXIS2_PLACEMENT_3D('',#246,#247,#248);
#179=SURFACE_SIDE_STYLE('',(#249));
#180=DRAUGHTING_PRE_DEFINED_CURVE_FONT('continuous');
#181=COLOUR_RGB('',0.501960813999176,0.501960813999176,0.501960813999176);
#182=EDGE_LOOP('',(#250));
#183=EDGE_LOOP('',(#251));
#184=AXIS2_PLACEMENT_3D('',#252,#253,#254);
#185=SURFACE_SIDE_STYLE('',(#255));
#186=DRAUGHTING_PRE_DEFINED_CURVE_FONT('continuous');
#187=COLOUR_RGB('',0.501960813999176,0.501960813999176,0.501960813999176);
#188=EDGE_LOOP('',(#256));
#189=EDGE_LOOP('',(#257));
#190=AXIS2_PLACEMENT_3D('',#258,#259,#260);
#191=SURFACE_SIDE_STYLE('',(#261));
#192=DRAUGHTING_PRE_DEFINED_CURVE_FONT('continuous');
#193=COLOUR_RGB('',0.501960813999176,0.501960813999176,0.501960813999176);
#194=EDGE_LOOP('',(#262));
#195=EDGE_LOOP('',(#263));
#196=AXIS2_PLACEMENT_3D('',#264,#265,#266);
#197=SURFACE_SIDE_STYLE('',(#267));
#198=DRAUGHTING_PRE_DEFINED_CURVE_FONT('continuous');
#199=COLOUR_RGB('',0.501960813999176,0.501960813999176,0.501960813999176);
#200=SURFACE_SIDE_STYLE('',(#268));
#201=DRAUGHTING_PRE_DEFINED_CURVE_FONT('continuous');
#202=COLOUR_RGB('',0.501960813999176,0.501960813999176,0.501960813999176);
#203=EDGE_LOOP('',(#269));
#204=EDGE_LOOP('',(#270));
#205=AXIS2_PLACEMENT_3D('',#271,#272,#273);
#206=DRAUGHTING_PRE_DEFINED_CURVE_FONT('continuous');
#207=COLOUR_RGB('',0.501960813999176,0.501960813999176,0.501960813999176);
#208=CARTESIAN_POINT('',(-1.34711147906211E-015,6.0,22.0000000000003));
#209=AXIS2_PLACEMENT_3D('',#274,#275,#276);
#210=DRAUGHTING_PRE_DEFINED_CURVE_FONT('continuous');
#211=COLOUR_RGB('',0.501960813999176,0.501960813999176,0.501960813999176);
#212=CARTESIAN_POINT('',(-3.15544362088405E-030,1.75000000000003,5.6843418860808E-014));
#213=AXIS2_PLACEMENT_3D('',#277,#278,#279);
#214=DRAUGHTING_PRE_DEFINED_CURVE_FONT('continuous');
#215=COLOUR_RGB('',0.501960813999176,0.501960813999176,0.501960813999176);
#216=CARTESIAN_POINT('',(-1.46957615897684E-015,8.00000000000001,24.0000000000002));
#217=AXIS2_PLACEMENT_3D('',#280,#281,#282);
#218=SURFACE_SIDE_STYLE('',(#283));
#219=DRAUGHTING_PRE_DEFINED_CURVE_FONT('continuous');
#220=COLOUR_RGB('',0.501960813999176,0.501960813999176,0.501960813999176);
#221=EDGE_LOOP('',(#284));
#222=EDGE_LOOP('',(#285));
#223=AXIS2_PLACEMENT_3D('',#286,#287,#288);
#224=SURFACE_SIDE_STYLE('',(#289));
#225=DRAUGHTING_PRE_DEFINED_CURVE_FONT('continuous');
#226=COLOUR_RGB('',0.501960813999176,0.501960813999176,0.501960813999176);
#227=EDGE_LOOP('',(#290));
#228=EDGE_LOOP('',(#291));
#229=AXIS2_PLACEMENT_3D('',#292,#293,#294);
#231=CARTESIAN_POINT('',(-6.12323399573678E-015,-1.22464679914736E-014,100.0));
#232=DIRECTION('',(6.12323399573677E-017,1.22464679914735E-016,-1.0));
#233=DIRECTION('',(-1.23259516440783E-032,1.0,1.22464679914735E-016));
#234=CARTESIAN_POINT('',(-2.44929359829458E-016,-4.89858719658915E-016,3.99999999999979));
#235=DIRECTION('',(6.12323399573677E-017,1.22464679914735E-016,-1.0));
#236=DIRECTION('',(-1.23259516440783E-032,1.0,1.22464679914735E-016));
#237=CARTESIAN_POINT('',(0.0,0.0,0.0));
#238=DIRECTION('',(6.12323399573677E-017,1.22464679914735E-016,-1.0));
#239=DIRECTION('',(-1.23259516440783E-032,1.0,1.22464679914735E-016));
#240=SURFACE_STYLE_FILL_AREA(#295);
#241=ORIENTED_EDGE('',*,*,#39,.F.);
#242=ORIENTED_EDGE('',*,*,#48,.T.);
#243=CARTESIAN_POINT('',(-6.12323399573678E-015,4.87500000000014,100.0));
#244=DIRECTION('',(-6.12323399573677E-017,-1.22464679914735E-016,1.0));
#245=DIRECTION('',(1.23259516440783E-032,-1.0,-1.22464679914735E-016));
#246=CARTESIAN_POINT('',(-6.12323399573678E-015,-1.22464679914736E-014,100.0));
#247=DIRECTION('',(6.12323399573677E-017,1.22464679914735E-016,-1.0));
#248=DIRECTION('',(-1.23259516440783E-032,1.0,1.22464679914735E-016));
#249=SURFACE_STYLE_FILL_AREA(#296);
#250=ORIENTED_EDGE('',*,*,#67,.F.);
#251=ORIENTED_EDGE('',*,*,#43,.T.);
#252=CARTESIAN_POINT('',(-1.57772181044202E-030,2.72029946162081,2.8421709430404E-014));
#253=DIRECTION('',(6.12323399573677E-017,-2.91692236643503E-014,-1.0));
#254=DIRECTION('',(1.78127266697722E-030,1.0,-2.91692236643503E-014));
#255=SURFACE_STYLE_FILL_AREA(#297);
#256=ORIENTED_EDGE('',*,*,#69,.F.);
#257=ORIENTED_EDGE('',*,*,#39,.T.);
#258=CARTESIAN_POINT('',(-3.79640507735681E-015,-7.59281015471362E-015,62.0000000000003));
#259=DIRECTION('',(6.12323399573676E-017,1.22464679914735E-016,-1.0));
#260=DIRECTION('',(-1.23259516440783E-032,1.0,1.22464679914735E-016));
#261=SURFACE_STYLE_FILL_AREA(#298);
#262=ORIENTED_EDGE('',*,*,#65,.F.);
#263=ORIENTED_EDGE('',*,*,#69,.T.);
#264=CARTESIAN_POINT('',(-1.40834381901947E-015,-2.81668763803895E-015,23.0000000000003));
#265=DIRECTION('',(-6.12323399573677E-017,-1.22464679914735E-016,1.0));
#266=DIRECTION('',(-1.23259516440783E-032,1.0,1.22464679914735E-016));
#267=SURFACE_STYLE_FILL_AREA(#299);
#268=SURFACE_STYLE_FILL_AREA(#300);
#269=ORIENTED_EDGE('',*,*,#48,.F.);
#270=ORIENTED_EDGE('',*,*,#67,.T.);
#271=CARTESIAN_POINT('',(-3.06161699786839E-015,-6.12323399573679E-015,50.0000000000002));
#272=DIRECTION('',(6.12323399573677E-017,1.22464679914735E-016,-1.0));
#273=DIRECTION('',(-1.23259516440783E-032,1.0,1.22464679914735E-016));
#274=CARTESIAN_POINT('',(-1.34711147906211E-015,-2.69422295812422E-015,22.0000000000003));
#275=DIRECTION('',(6.12323399573677E-017,1.22464679914735E-016,-1.0));
#276=DIRECTION('',(-1.23259516440783E-032,1.0,1.22464679914735E-016));
#277=CARTESIAN_POINT('',(-3.15544362088405E-030,-7.88860905221012E-030,5.6843418860808E-014));
#278=DIRECTION('',(6.12323399573677E-017,1.22464679914735E-016,-1.0));
#279=DIRECTION('',(-1.23259516440783E-032,1.0,1.22464679914735E-016));
#280=CARTESIAN_POINT('',(-1.46957615897684E-015,-2.93915231795368E-015,24.0000000000002));
#281=DIRECTION('',(6.12323399573677E-017,1.22464679914735E-016,-1.0));
#282=DIRECTION('',(-1.23259516440783E-032,1.0,1.22464679914735E-016));
#283=SURFACE_STYLE_FILL_AREA(#301);
#284=ORIENTED_EDGE('',*,*,#43,.F.);
#285=ORIENTED_EDGE('',*,*,#41,.T.);
#286=CARTESIAN_POINT('',(-1.22464679914729E-016,-2.44929359829459E-016,1.9999999999999));
#287=DIRECTION('',(-6.12323399573677E-017,-1.22464679914735E-016,1.0));
#288=DIRECTION('',(-1.23259516440783E-032,1.0,1.22464679914735E-016));
#289=SURFACE_STYLE_FILL_AREA(#302);
#290=ORIENTED_EDGE('',*,*,#41,.F.);
#291=ORIENTED_EDGE('',*,*,#65,.T.);
#292=CARTESIAN_POINT('',(-7.96020419445783E-016,-1.59204083889157E-015,13.0000000000001));
#293=DIRECTION('',(6.12323399573677E-017,1.22464679914735E-016,-1.0));
#294=DIRECTION('',(-1.23259516440783E-032,1.0,1.22464679914735E-016));
#295=FILL_AREA_STYLE('',(#303));
#296=FILL_AREA_STYLE('',(#304));
#297=FILL_AREA_STYLE('',(#305));
#298=FILL_AREA_STYLE('',(#306));
#299=FILL_AREA_STYLE('',(#307));
#300=FILL_AREA_STYLE('',(#308));
#301=FILL_AREA_STYLE('',(#309));
#302=FILL_AREA_STYLE('',(#310));
#303=FILL_AREA_STYLE_COLOUR('',#311);
#304=FILL_AREA_STYLE_COLOUR('',#312);
#305=FILL_AREA_STYLE_COLOUR('',#313);
#306=FILL_AREA_STYLE_COLOUR('',#314);
#307=FILL_AREA_STYLE_COLOUR('',#315);
#308=FILL_AREA_STYLE_COLOUR('',#316);
#309=FILL_AREA_STYLE_COLOUR('',#317);
#310=FILL_AREA_STYLE_COLOUR('',#318);
#311=COLOUR_RGB('',0.501960813999176,0.501960813999176,0.501960813999176);
#312=COLOUR_RGB('',0.501960813999176,0.501960813999176,0.501960813999176);
#313=COLOUR_RGB('',0.501960813999176,0.501960813999176,0.501960813999176);
#314=COLOUR_RGB('',0.501960813999176,0.501960813999176,0.501960813999176);
#315=COLOUR_RGB('',0.501960813999176,0.501960813999176,0.501960813999176);
#316=COLOUR_RGB('',0.501960813999176,0.501960813999176,0.501960813999176);
#317=COLOUR_RGB('',0.501960813999176,0.501960813999176,0.501960813999176);
#318=COLOUR_RGB('',0.501960813999176,0.501960813999176,0.501960813999176);
ENDSEC;
END-ISO-10303-21;
