ISO-10303-21;
HEADER;
FILE_DESCRIPTION((''),'1');
FILE_NAME('T:/00_BIG-HP\X2\FF71FF6FFF8CFF9F\X0\/2022_\X2\30C030A630F330ED30FC30C930C730FC30BF\X0\/02_STEP\X2\FF83FF9EFF70FF80\X0\/LINK\X2\7528FF83FF9EFF70FF80FF8EFF99FF80FF9E\X0\/CK\X2\FF8DFF6FFF84FF9E30FBFF71FF78FF7EFF7BFF98\X0\/10_\X2\4ED54E0A305275284E38FF8AFF9EFF72FF84FF7CFF98FF70FF7DFF9E\X0\/06_\X2\FF7BFF72FF84FF9EFF9BFF6FFF784E38FF8AFF9EFF72FF84FF8EFF99FF80FF9E\X0\/\X2\5EA76A19\X0\_\X2\5C5E6027590966F4\X0\/ST16-SL10.stp','2022-09-28T02:01:24',(''),(''),'Spatial Interop R21 SP3','Kubotek KeyCreator 2011 V10.0.2 (22737)',' ');
FILE_SCHEMA(('automotive_design'));
ENDSEC;
DATA;
#1=MECHANICAL_DESIGN_GEOMETRIC_PRESENTATION_REPRESENTATION(' ',(#10,#11,#12,#13,#14,#15,#16,#17,#18,#19,#20,#21,#22,#23,#24),#6);
#2=PRODUCT_DEFINITION_CONTEXT('',#25,'design');
#3=APPLICATION_PROTOCOL_DEFINITION('INTERNATIONAL STANDARD','automotive_design',1994,#25);
#4=PRODUCT_CATEGORY_RELATIONSHIP('NONE','NONE',#26,#27);
#5=SHAPE_DEFINITION_REPRESENTATION(#28,#29);
#6= (GEOMETRIC_REPRESENTATION_CONTEXT(3)GLOBAL_UNCERTAINTY_ASSIGNED_CONTEXT((#32))GLOBAL_UNIT_ASSIGNED_CONTEXT((#34,#35,#36))REPRESENTATION_CONTEXT('NONE','WORKSPACE'));
#10=STYLED_ITEM('',(#38,#39),#40);
#11=STYLED_ITEM('',(#41),#42);
#12=STYLED_ITEM('',(#43,#44),#45);
#13=STYLED_ITEM('',(#46,#47),#48);
#14=STYLED_ITEM('',(#49),#50);
#15=STYLED_ITEM('',(#51),#52);
#16=STYLED_ITEM('',(#53,#54),#55);
#17=STYLED_ITEM('',(#56),#57);
#18=STYLED_ITEM('',(#58,#59),#60);
#19=STYLED_ITEM('',(#61,#62),#63);
#20=STYLED_ITEM('',(#64),#65);
#21=STYLED_ITEM('',(#66,#67),#68);
#22=STYLED_ITEM('',(#69),#70);
#23=STYLED_ITEM('',(#71),#72);
#24=STYLED_ITEM('',(#73,#74),#75);
#25=APPLICATION_CONTEXT(' ');
#26=PRODUCT_CATEGORY('part','NONE');
#27=PRODUCT_RELATED_PRODUCT_CATEGORY('detail',' ',(#76));
#28=PRODUCT_DEFINITION_SHAPE('NONE','NONE',#77);
#29=ADVANCED_BREP_SHAPE_REPRESENTATION('240[2]',(#55,#78),#6);
#32=UNCERTAINTY_MEASURE_WITH_UNIT(LENGTH_MEASURE(1.0E-006),#34,'','');
#34= (CONVERSION_BASED_UNIT('MILLIMETRE',#81)LENGTH_UNIT()NAMED_UNIT(#84));
#35= (NAMED_UNIT(#86)PLANE_ANGLE_UNIT()SI_UNIT($,.RADIAN.));
#36= (NAMED_UNIT(#86)SOLID_ANGLE_UNIT()SI_UNIT($,.STERADIAN.));
#38=PRESENTATION_STYLE_ASSIGNMENT((#92));
#39=PRESENTATION_STYLE_ASSIGNMENT((#93));
#40=ADVANCED_FACE('240[2]',(#94,#95),#96,.T.);
#41=PRESENTATION_STYLE_ASSIGNMENT((#97));
#42=EDGE_CURVE('240[2]',#98,#98,#99,.T.);
#43=PRESENTATION_STYLE_ASSIGNMENT((#100));
#44=PRESENTATION_STYLE_ASSIGNMENT((#101));
#45=ADVANCED_FACE('240[2]',(#102,#103),#104,.T.);
#46=PRESENTATION_STYLE_ASSIGNMENT((#105));
#47=PRESENTATION_STYLE_ASSIGNMENT((#106));
#48=ADVANCED_FACE('240[2]',(#107,#108),#109,.T.);
#49=PRESENTATION_STYLE_ASSIGNMENT((#110));
#50=EDGE_CURVE('240[2]',#111,#111,#112,.T.);
#51=PRESENTATION_STYLE_ASSIGNMENT((#113));
#52=EDGE_CURVE('240[2]',#114,#114,#115,.T.);
#53=PRESENTATION_STYLE_ASSIGNMENT((#116));
#54=PRESENTATION_STYLE_ASSIGNMENT((#117));
#55=MANIFOLD_SOLID_BREP('240[2]',#118);
#56=PRESENTATION_STYLE_ASSIGNMENT((#119));
#57=EDGE_CURVE('240[2]',#120,#120,#121,.T.);
#58=PRESENTATION_STYLE_ASSIGNMENT((#122));
#59=PRESENTATION_STYLE_ASSIGNMENT((#123));
#60=ADVANCED_FACE('240[2]',(#124,#125),#126,.T.);
#61=PRESENTATION_STYLE_ASSIGNMENT((#127));
#62=PRESENTATION_STYLE_ASSIGNMENT((#128));
#63=ADVANCED_FACE('240[2]',(#129,#130),#131,.T.);
#64=PRESENTATION_STYLE_ASSIGNMENT((#132));
#65=EDGE_CURVE('240[2]',#133,#133,#134,.T.);
#66=PRESENTATION_STYLE_ASSIGNMENT((#135));
#67=PRESENTATION_STYLE_ASSIGNMENT((#136));
#68=ADVANCED_FACE('240[2]',(#137,#138),#139,.T.);
#69=PRESENTATION_STYLE_ASSIGNMENT((#140));
#70=EDGE_CURVE('240[2]',#141,#141,#142,.T.);
#71=PRESENTATION_STYLE_ASSIGNMENT((#143));
#72=EDGE_CURVE('240[2]',#144,#144,#145,.F.);
#73=PRESENTATION_STYLE_ASSIGNMENT((#146));
#74=PRESENTATION_STYLE_ASSIGNMENT((#147));
#75=ADVANCED_FACE('240[2]',(#148,#149),#150,.F.);
#76=PRODUCT('240[2]','240[2]','PART-240[2]-DESC',(#151));
#77=PRODUCT_DEFINITION('NONE','NONE',#152,#2);
#78=AXIS2_PLACEMENT_3D('',#153,#154,#155);
#81=LENGTH_MEASURE_WITH_UNIT(LENGTH_MEASURE(1.0),#156);
#84=DIMENSIONAL_EXPONENTS(1.0,0.0,0.0,0.0,0.0,0.0,0.0);
#86=DIMENSIONAL_EXPONENTS(0.0,0.0,0.0,0.0,0.0,0.0,0.0);
#92=SURFACE_STYLE_USAGE(.BOTH.,#157);
#93=CURVE_STYLE('',#158,POSITIVE_LENGTH_MEASURE(1000.0),#159);
#94=FACE_BOUND('',#160,.T.);
#95=FACE_OUTER_BOUND('',#161,.T.);
#96=PLANE('',#162);
#97=CURVE_STYLE('',#163,POSITIVE_LENGTH_MEASURE(1000.0),#164);
#98=VERTEX_POINT('',#165);
#99=CIRCLE('',#166,5.0);
#100=SURFACE_STYLE_USAGE(.BOTH.,#167);
#101=CURVE_STYLE('',#168,POSITIVE_LENGTH_MEASURE(1000.0),#169);
#102=FACE_OUTER_BOUND('',#170,.T.);
#103=FACE_BOUND('',#171,.T.);
#104=PLANE('',#172);
#105=SURFACE_STYLE_USAGE(.BOTH.,#173);
#106=CURVE_STYLE('',#174,POSITIVE_LENGTH_MEASURE(1000.0),#175);
#107=FACE_BOUND('',#176,.T.);
#108=FACE_BOUND('',#177,.T.);
#109=CYLINDRICAL_SURFACE('',#178,7.99999999999999);
#110=CURVE_STYLE('',#179,POSITIVE_LENGTH_MEASURE(1000.0),#180);
#111=VERTEX_POINT('',#181);
#112=CIRCLE('',#182,12.0);
#113=CURVE_STYLE('',#183,POSITIVE_LENGTH_MEASURE(1000.0),#184);
#114=VERTEX_POINT('',#185);
#115=CIRCLE('',#186,9.08823812587038);
#116=SURFACE_STYLE_USAGE(.BOTH.,#187);
#117=CURVE_STYLE('',#188,POSITIVE_LENGTH_MEASURE(1000.0),#189);
#118=CLOSED_SHELL('',(#75,#68,#48,#45,#60,#63,#40));
#119=CURVE_STYLE('',#190,POSITIVE_LENGTH_MEASURE(1000.0),#191);
#120=VERTEX_POINT('',#192);
#121=CIRCLE('',#193,12.0);
#122=SURFACE_STYLE_USAGE(.BOTH.,#194);
#123=CURVE_STYLE('',#195,POSITIVE_LENGTH_MEASURE(1000.0),#196);
#124=FACE_BOUND('',#197,.T.);
#125=FACE_BOUND('',#198,.T.);
#126=CONICAL_SURFACE('',#199,9.08823812587038,0.349065850398867);
#127=SURFACE_STYLE_USAGE(.BOTH.,#200);
#128=CURVE_STYLE('',#201,POSITIVE_LENGTH_MEASURE(1000.0),#202);
#129=FACE_BOUND('',#203,.T.);
#130=FACE_OUTER_BOUND('',#204,.T.);
#131=PLANE('',#205);
#132=CURVE_STYLE('',#206,POSITIVE_LENGTH_MEASURE(1000.0),#207);
#133=VERTEX_POINT('',#208);
#134=CIRCLE('',#209,7.99999999999999);
#135=SURFACE_STYLE_USAGE(.BOTH.,#210);
#136=CURVE_STYLE('',#211,POSITIVE_LENGTH_MEASURE(1000.0),#212);
#137=FACE_BOUND('',#213,.T.);
#138=FACE_BOUND('',#214,.T.);
#139=CYLINDRICAL_SURFACE('',#215,12.0);
#140=CURVE_STYLE('',#216,POSITIVE_LENGTH_MEASURE(1000.0),#217);
#141=VERTEX_POINT('',#218);
#142=CIRCLE('',#219,5.0);
#143=CURVE_STYLE('',#220,POSITIVE_LENGTH_MEASURE(1000.0),#221);
#144=VERTEX_POINT('',#222);
#145=CIRCLE('',#223,7.99999999999999);
#146=SURFACE_STYLE_USAGE(.BOTH.,#224);
#147=CURVE_STYLE('',#225,POSITIVE_LENGTH_MEASURE(1000.0),#226);
#148=FACE_BOUND('',#227,.T.);
#149=FACE_BOUND('',#228,.T.);
#150=CYLINDRICAL_SURFACE('',#229,5.0);
#151=PRODUCT_CONTEXT('',#25,'mechanical');
#152=PRODUCT_DEFINITION_FORMATION_WITH_SPECIFIED_SOURCE(' ','NONE',#76,.NOT_KNOWN.);
#153=CARTESIAN_POINT('',(0.0,0.0,0.0));
#154=DIRECTION('',(0.0,0.0,1.0));
#155=DIRECTION('',(1.0,0.0,0.0));
#156= (NAMED_UNIT(#84)LENGTH_UNIT()SI_UNIT(.MILLI.,.METRE.));
#157=SURFACE_SIDE_STYLE('',(#231));
#158=DRAUGHTING_PRE_DEFINED_CURVE_FONT('continuous');
#159=COLOUR_RGB('',0.501960813999176,0.501960813999176,0.501960813999176);
#160=EDGE_LOOP('',(#232));
#161=EDGE_LOOP('',(#233));
#162=AXIS2_PLACEMENT_3D('',#234,#235,#236);
#163=DRAUGHTING_PRE_DEFINED_CURVE_FONT('continuous');
#164=COLOUR_RGB('',0.501960813999176,0.501960813999176,0.501960813999176);
#165=CARTESIAN_POINT('',(5.0,0.0,0.0));
#166=AXIS2_PLACEMENT_3D('',#237,#238,#239);
#167=SURFACE_SIDE_STYLE('',(#240));
#168=DRAUGHTING_PRE_DEFINED_CURVE_FONT('continuous');
#169=COLOUR_RGB('',0.501960813999176,0.501960813999176,0.501960813999176);
#170=EDGE_LOOP('',(#241));
#171=EDGE_LOOP('',(#242));
#172=AXIS2_PLACEMENT_3D('',#243,#244,#245);
#173=SURFACE_SIDE_STYLE('',(#246));
#174=DRAUGHTING_PRE_DEFINED_CURVE_FONT('continuous');
#175=COLOUR_RGB('',0.501960813999176,0.501960813999176,0.501960813999176);
#176=EDGE_LOOP('',(#247));
#177=EDGE_LOOP('',(#248));
#178=AXIS2_PLACEMENT_3D('',#249,#250,#251);
#179=DRAUGHTING_PRE_DEFINED_CURVE_FONT('continuous');
#180=COLOUR_RGB('',0.501960813999176,0.501960813999176,0.501960813999176);
#181=CARTESIAN_POINT('',(2.87975265271106E-015,-12.0,8.0));
#182=AXIS2_PLACEMENT_3D('',#252,#253,#254);
#183=DRAUGHTING_PRE_DEFINED_CURVE_FONT('continuous');
#184=COLOUR_RGB('',0.501960813999176,0.501960813999176,0.501960813999176);
#185=CARTESIAN_POINT('',(2.36015684946744,-8.77643047476797,6.87173710125767E-016));
#186=AXIS2_PLACEMENT_3D('',#255,#256,#257);
#187=SURFACE_SIDE_STYLE('',(#258));
#188=DRAUGHTING_PRE_DEFINED_CURVE_FONT('continuous');
#189=COLOUR_RGB('',0.501960813999176,0.501960813999176,0.501960813999176);
#190=DRAUGHTING_PRE_DEFINED_CURVE_FONT('continuous');
#191=COLOUR_RGB('',0.501960813999176,0.501960813999176,0.501960813999176);
#192=CARTESIAN_POINT('',(-5.19615242270663,10.816653826392,25.0));
#193=AXIS2_PLACEMENT_3D('',#259,#260,#261);
#194=SURFACE_SIDE_STYLE('',(#262));
#195=DRAUGHTING_PRE_DEFINED_CURVE_FONT('continuous');
#196=COLOUR_RGB('',0.501960813999176,0.501960813999176,0.501960813999176);
#197=EDGE_LOOP('',(#263));
#198=EDGE_LOOP('',(#264));
#199=AXIS2_PLACEMENT_3D('',#265,#266,#267);
#200=SURFACE_SIDE_STYLE('',(#268));
#201=DRAUGHTING_PRE_DEFINED_CURVE_FONT('continuous');
#202=COLOUR_RGB('',0.501960813999176,0.501960813999176,0.501960813999176);
#203=EDGE_LOOP('',(#269));
#204=EDGE_LOOP('',(#270));
#205=AXIS2_PLACEMENT_3D('',#271,#272,#273);
#206=DRAUGHTING_PRE_DEFINED_CURVE_FONT('continuous');
#207=COLOUR_RGB('',0.501960813999176,0.501960813999176,0.501960813999176);
#208=CARTESIAN_POINT('',(7.99999999999998,4.65365783675995E-015,100.0));
#209=AXIS2_PLACEMENT_3D('',#274,#275,#276);
#210=SURFACE_SIDE_STYLE('',(#277));
#211=DRAUGHTING_PRE_DEFINED_CURVE_FONT('continuous');
#212=COLOUR_RGB('',0.501960813999176,0.501960813999176,0.501960813999176);
#213=EDGE_LOOP('',(#278));
#214=EDGE_LOOP('',(#279));
#215=AXIS2_PLACEMENT_3D('',#280,#281,#282);
#216=DRAUGHTING_PRE_DEFINED_CURVE_FONT('continuous');
#217=COLOUR_RGB('',0.501960813999176,0.501960813999176,0.501960813999176);
#218=CARTESIAN_POINT('',(5.0,0.0,100.0));
#219=AXIS2_PLACEMENT_3D('',#283,#284,#285);
#220=DRAUGHTING_PRE_DEFINED_CURVE_FONT('continuous');
#221=COLOUR_RGB('',0.501960813999176,0.501960813999176,0.501960813999176);
#222=CARTESIAN_POINT('',(7.23379388076349,3.41646397473008,25.0));
#223=AXIS2_PLACEMENT_3D('',#286,#287,#288);
#224=SURFACE_SIDE_STYLE('',(#289));
#225=DRAUGHTING_PRE_DEFINED_CURVE_FONT('continuous');
#226=COLOUR_RGB('',0.501960813999176,0.501960813999176,0.501960813999176);
#227=EDGE_LOOP('',(#290));
#228=EDGE_LOOP('',(#291));
#229=AXIS2_PLACEMENT_3D('',#292,#293,#294);
#231=SURFACE_STYLE_FILL_AREA(#295);
#232=ORIENTED_EDGE('',*,*,#42,.T.);
#233=ORIENTED_EDGE('',*,*,#52,.F.);
#234=CARTESIAN_POINT('',(-9.18485099360514E-016,-5.0,3.06161699786838E-016));
#235=DIRECTION('',(1.22464679914735E-016,-6.12323399573677E-017,-1.0));
#236=DIRECTION('',(0.0,-1.0,6.12323399573677E-017));
#237=CARTESIAN_POINT('',(0.0,0.0,3.06161699786838E-016));
#238=DIRECTION('',(-1.22464679914735E-016,6.12323399573677E-017,1.0));
#239=DIRECTION('',(1.0,7.49879891330927E-033,1.22464679914735E-016));
#240=SURFACE_STYLE_FILL_AREA(#296);
#241=ORIENTED_EDGE('',*,*,#57,.T.);
#242=ORIENTED_EDGE('',*,*,#72,.T.);
#243=CARTESIAN_POINT('',(-4.62304166678126E-015,-8.49999999999999,25.0));
#244=DIRECTION('',(-2.81159925711243E-065,6.12323399573677E-017,1.0));
#245=DIRECTION('',(1.0,4.59169004331693E-049,0.0));
#246=SURFACE_STYLE_FILL_AREA(#297);
#247=ORIENTED_EDGE('',*,*,#65,.F.);
#248=ORIENTED_EDGE('',*,*,#72,.F.);
#249=CARTESIAN_POINT('',(2.65258542464472E-016,-1.32629271232236E-016,-2.16600037373352));
#250=DIRECTION('',(1.22464679914735E-016,-6.12323399573677E-017,-1.0));
#251=DIRECTION('',(1.0,-1.83697019872103E-016,1.22464679914735E-016));
#252=CARTESIAN_POINT('',(-9.79717439317882E-016,4.89858719658942E-016,8.0));
#253=DIRECTION('',(1.22464679914735E-016,-6.12323399573677E-017,-1.0));
#254=DIRECTION('',(1.0,-1.83697019872103E-016,1.22464679914735E-016));
#255=CARTESIAN_POINT('',(3.62278493456772E-047,-1.81139246728387E-047,-2.95822839457879E-031));
#256=DIRECTION('',(-1.22464679914735E-016,6.12323399573677E-017,1.0));
#257=DIRECTION('',(-1.0,1.83697019872103E-016,-1.22464679914735E-016));
#258=SURFACE_STYLE_FILL_AREA(#298);
#259=CARTESIAN_POINT('',(-3.06161699786837E-015,1.53080849893419E-015,25.0));
#260=DIRECTION('',(-5.18640382214046E-033,6.12323399573677E-017,1.0));
#261=DIRECTION('',(1.0,-1.83697019872103E-016,1.64346021921044E-032));
#262=SURFACE_STYLE_FILL_AREA(#299);
#263=ORIENTED_EDGE('',*,*,#52,.T.);
#264=ORIENTED_EDGE('',*,*,#50,.T.);
#265=CARTESIAN_POINT('',(0.0,0.0,0.0));
#266=DIRECTION('',(-1.22464679914735E-016,6.12323399573677E-017,1.0));
#267=DIRECTION('',(-1.0,1.83697019872103E-016,-1.22464679914735E-016));
#268=SURFACE_STYLE_FILL_AREA(#300);
#269=ORIENTED_EDGE('',*,*,#70,.T.);
#270=ORIENTED_EDGE('',*,*,#65,.T.);
#271=CARTESIAN_POINT('',(-1.37160441504504E-014,-7.99999999999999,100.0));
#272=DIRECTION('',(-2.81159925711243E-065,6.12323399573677E-017,1.0));
#273=DIRECTION('',(1.0,4.59169004331693E-049,0.0));
#274=CARTESIAN_POINT('',(-1.22464679914735E-014,6.12323399573677E-015,100.0));
#275=DIRECTION('',(-1.34037049181928E-032,6.12323399573677E-017,1.0));
#276=DIRECTION('',(1.0,-1.83697019872103E-016,2.46519032881567E-032));
#277=SURFACE_STYLE_FILL_AREA(#301);
#278=ORIENTED_EDGE('',*,*,#57,.F.);
#279=ORIENTED_EDGE('',*,*,#50,.F.);
#280=CARTESIAN_POINT('',(2.65258542464472E-016,-1.32629271232236E-016,-2.16600037373352));
#281=DIRECTION('',(1.22464679914735E-016,-6.12323399573677E-017,-1.0));
#282=DIRECTION('',(1.0,-1.83697019872103E-016,1.22464679914735E-016));
#283=CARTESIAN_POINT('',(0.0,0.0,100.0));
#284=DIRECTION('',(2.81159925711243E-065,-6.12323399573677E-017,-1.0));
#285=DIRECTION('',(1.0,1.72160801535391E-081,2.81159925711243E-065));
#286=CARTESIAN_POINT('',(-3.06161699786838E-015,1.53080849893419E-015,25.0));
#287=DIRECTION('',(-1.34037049181928E-032,6.12323399573677E-017,1.0));
#288=DIRECTION('',(1.0,-1.83697019872103E-016,2.46519032881567E-032));
#289=SURFACE_STYLE_FILL_AREA(#302);
#290=ORIENTED_EDGE('',*,*,#70,.F.);
#291=ORIENTED_EDGE('',*,*,#42,.F.);
#292=CARTESIAN_POINT('',(0.0,0.0,0.0));
#293=DIRECTION('',(0.0,0.0,1.0));
#294=DIRECTION('',(1.0,0.0,0.0));
#295=FILL_AREA_STYLE('',(#303));
#296=FILL_AREA_STYLE('',(#304));
#297=FILL_AREA_STYLE('',(#305));
#298=FILL_AREA_STYLE('',(#306));
#299=FILL_AREA_STYLE('',(#307));
#300=FILL_AREA_STYLE('',(#308));
#301=FILL_AREA_STYLE('',(#309));
#302=FILL_AREA_STYLE('',(#310));
#303=FILL_AREA_STYLE_COLOUR('',#311);
#304=FILL_AREA_STYLE_COLOUR('',#312);
#305=FILL_AREA_STYLE_COLOUR('',#313);
#306=FILL_AREA_STYLE_COLOUR('',#314);
#307=FILL_AREA_STYLE_COLOUR('',#315);
#308=FILL_AREA_STYLE_COLOUR('',#316);
#309=FILL_AREA_STYLE_COLOUR('',#317);
#310=FILL_AREA_STYLE_COLOUR('',#318);
#311=COLOUR_RGB('',0.501960813999176,0.501960813999176,0.501960813999176);
#312=COLOUR_RGB('',0.501960813999176,0.501960813999176,0.501960813999176);
#313=COLOUR_RGB('',0.501960813999176,0.501960813999176,0.501960813999176);
#314=COLOUR_RGB('',0.501960813999176,0.501960813999176,0.501960813999176);
#315=COLOUR_RGB('',0.501960813999176,0.501960813999176,0.501960813999176);
#316=COLOUR_RGB('',0.501960813999176,0.501960813999176,0.501960813999176);
#317=COLOUR_RGB('',0.501960813999176,0.501960813999176,0.501960813999176);
#318=COLOUR_RGB('',0.501960813999176,0.501960813999176,0.501960813999176);
ENDSEC;
END-ISO-10303-21;
