ISO-10303-21;
HEADER;
FILE_DESCRIPTION((''),'1');
FILE_NAME('U:/Translate/02_3D_Field-HP\X2\FF71FF6FFF8CFF9F5916\X0\2013/02_Step_Field-HP\X2\FF71FF6FFF8CFF9F5916\X0\2013/71_\X2\5207524A5DE55177\X0\/44_\X2\FF7EFF9DFF80FF70FF8EFF9EFF70FF72\X0\/ST16-CBY09016.stp','2015-09-17T00:40:13',(''),(''),'Spatial Interop R21 SP3','Kubotek KeyCreator 2011 V10.0.2 (22737)',' ');
FILE_SCHEMA(('automotive_design'));
ENDSEC;
DATA;
#1=MECHANICAL_DESIGN_GEOMETRIC_PRESENTATION_REPRESENTATION(' ',(#10,#11,#12,#13,#14,#15),#6);
#2=PRODUCT_DEFINITION_CONTEXT('',#16,'design');
#3=APPLICATION_PROTOCOL_DEFINITION('INTERNATIONAL STANDARD','automotive_design',1994,#16);
#4=PRODUCT_CATEGORY_RELATIONSHIP('NONE','NONE',#17,#18);
#5=SHAPE_DEFINITION_REPRESENTATION(#19,#20);
#6= (GEOMETRIC_REPRESENTATION_CONTEXT(3)GLOBAL_UNCERTAINTY_ASSIGNED_CONTEXT((#23))GLOBAL_UNIT_ASSIGNED_CONTEXT((#25,#26,#27))REPRESENTATION_CONTEXT('NONE','WORKSPACE'));
#10=STYLED_ITEM('',(#29,#30),#31);
#11=STYLED_ITEM('',(#32),#33);
#12=STYLED_ITEM('',(#34,#35),#36);
#13=STYLED_ITEM('',(#37),#38);
#14=STYLED_ITEM('',(#39,#40),#41);
#15=STYLED_ITEM('',(#42,#43),#44);
#16=APPLICATION_CONTEXT(' ');
#17=PRODUCT_CATEGORY('part','NONE');
#18=PRODUCT_RELATED_PRODUCT_CATEGORY('detail',' ',(#45));
#19=PRODUCT_DEFINITION_SHAPE('NONE','NONE',#46);
#20=ADVANCED_BREP_SHAPE_REPRESENTATION('Unnamed[1]',(#41,#47),#6);
#23=UNCERTAINTY_MEASURE_WITH_UNIT(LENGTH_MEASURE(1.0E-006),#25,'','');
#25= (CONVERSION_BASED_UNIT('MILLIMETRE',#50)LENGTH_UNIT()NAMED_UNIT(#53));
#26= (NAMED_UNIT(#55)PLANE_ANGLE_UNIT()SI_UNIT($,.RADIAN.));
#27= (NAMED_UNIT(#55)SOLID_ANGLE_UNIT()SI_UNIT($,.STERADIAN.));
#29=PRESENTATION_STYLE_ASSIGNMENT((#61));
#30=PRESENTATION_STYLE_ASSIGNMENT((#62));
#31=ADVANCED_FACE('Unnamed[1]',(#63,#64),#65,.T.);
#32=PRESENTATION_STYLE_ASSIGNMENT((#66));
#33=EDGE_CURVE('Unnamed[1]',#67,#67,#68,.T.);
#34=PRESENTATION_STYLE_ASSIGNMENT((#69));
#35=PRESENTATION_STYLE_ASSIGNMENT((#70));
#36=ADVANCED_FACE('Unnamed[1]',(#71),#72,.T.);
#37=PRESENTATION_STYLE_ASSIGNMENT((#73));
#38=EDGE_CURVE('Unnamed[1]',#74,#74,#75,.T.);
#39=PRESENTATION_STYLE_ASSIGNMENT((#76));
#40=PRESENTATION_STYLE_ASSIGNMENT((#77));
#41=MANIFOLD_SOLID_BREP('Unnamed[1]',#78);
#42=PRESENTATION_STYLE_ASSIGNMENT((#79));
#43=PRESENTATION_STYLE_ASSIGNMENT((#80));
#44=ADVANCED_FACE('Unnamed[1]',(#81,#82),#83,.T.);
#45=PRODUCT('Unnamed[1]','Unnamed[1]','PART-Unnamed[1]-DESC',(#84));
#46=PRODUCT_DEFINITION('NONE','NONE',#85,#2);
#47=AXIS2_PLACEMENT_3D('',#86,#87,#88);
#50=LENGTH_MEASURE_WITH_UNIT(LENGTH_MEASURE(1.0),#89);
#53=DIMENSIONAL_EXPONENTS(1.0,0.0,0.0,0.0,0.0,0.0,0.0);
#55=DIMENSIONAL_EXPONENTS(0.0,0.0,0.0,0.0,0.0,0.0,0.0);
#61=SURFACE_STYLE_USAGE(.BOTH.,#90);
#62=CURVE_STYLE('',#91,POSITIVE_LENGTH_MEASURE(1000.0),#92);
#63=FACE_BOUND('',#93,.T.);
#64=FACE_BOUND('',#94,.T.);
#65=CONICAL_SURFACE('',#95,4.0,0.785398163397427);
#66=CURVE_STYLE('',#96,POSITIVE_LENGTH_MEASURE(1000.0),#97);
#67=VERTEX_POINT('',#98);
#68=CIRCLE('',#99,8.0);
#69=SURFACE_STYLE_USAGE(.BOTH.,#100);
#70=CURVE_STYLE('',#101,POSITIVE_LENGTH_MEASURE(1000.0),#102);
#71=FACE_OUTER_BOUND('',#103,.T.);
#72=PLANE('',#104);
#73=CURVE_STYLE('',#105,POSITIVE_LENGTH_MEASURE(1000.0),#106);
#74=VERTEX_POINT('',#107);
#75=CIRCLE('',#108,8.0);
#76=SURFACE_STYLE_USAGE(.BOTH.,#109);
#77=CURVE_STYLE('',#110,POSITIVE_LENGTH_MEASURE(1000.0),#111);
#78=CLOSED_SHELL('',(#31,#44,#36));
#79=SURFACE_STYLE_USAGE(.BOTH.,#112);
#80=CURVE_STYLE('',#113,POSITIVE_LENGTH_MEASURE(1000.0),#114);
#81=FACE_BOUND('',#115,.T.);
#82=FACE_BOUND('',#116,.T.);
#83=CYLINDRICAL_SURFACE('',#117,8.0);
#84=PRODUCT_CONTEXT('',#16,'mechanical');
#85=PRODUCT_DEFINITION_FORMATION_WITH_SPECIFIED_SOURCE(' ','NONE',#45,.NOT_KNOWN.);
#86=CARTESIAN_POINT('',(0.0,0.0,0.0));
#87=DIRECTION('',(0.0,0.0,1.0));
#88=DIRECTION('',(1.0,0.0,0.0));
#89= (NAMED_UNIT(#53)LENGTH_UNIT()SI_UNIT(.MILLI.,.METRE.));
#90=SURFACE_SIDE_STYLE('',(#119));
#91=DRAUGHTING_PRE_DEFINED_CURVE_FONT('continuous');
#92=COLOUR_RGB('',0.0,1.0,0.0);
#93=EDGE_LOOP('',(#120));
#94=VERTEX_LOOP('',#121);
#95=AXIS2_PLACEMENT_3D('',#122,#123,#124);
#96=DRAUGHTING_PRE_DEFINED_CURVE_FONT('continuous');
#97=COLOUR_RGB('',0.0,1.0,0.0);
#98=CARTESIAN_POINT('',(0.0,8.0,0.0));
#99=AXIS2_PLACEMENT_3D('',#125,#126,#127);
#100=SURFACE_SIDE_STYLE('',(#128));
#101=DRAUGHTING_PRE_DEFINED_CURVE_FONT('continuous');
#102=COLOUR_RGB('',0.0,1.0,0.0);
#103=EDGE_LOOP('',(#129));
#104=AXIS2_PLACEMENT_3D('',#130,#131,#132);
#105=DRAUGHTING_PRE_DEFINED_CURVE_FONT('continuous');
#106=COLOUR_RGB('',0.0,1.0,0.0);
#107=CARTESIAN_POINT('',(1.05319624726672E-014,8.00000000000002,-172.0));
#108=AXIS2_PLACEMENT_3D('',#133,#134,#135);
#109=SURFACE_SIDE_STYLE('',(#136));
#110=DRAUGHTING_PRE_DEFINED_CURVE_FONT('continuous');
#111=COLOUR_RGB('',0.0,1.0,0.0);
#112=SURFACE_SIDE_STYLE('',(#137));
#113=DRAUGHTING_PRE_DEFINED_CURVE_FONT('continuous');
#114=COLOUR_RGB('',0.0,1.0,0.0);
#115=EDGE_LOOP('',(#138));
#116=EDGE_LOOP('',(#139));
#117=AXIS2_PLACEMENT_3D('',#140,#141,#142);
#119=SURFACE_STYLE_FILL_AREA(#143);
#120=ORIENTED_EDGE('',*,*,#38,.F.);
#121=VERTEX_POINT('',#144);
#122=CARTESIAN_POINT('',(1.07768918324967E-014,2.15537836649934E-014,-176.0));
#123=DIRECTION('',(-6.12323399573677E-017,-1.22464679914735E-016,1.0));
#124=DIRECTION('',(-1.23259516440783E-032,1.0,1.22464679914735E-016));
#125=CARTESIAN_POINT('',(0.0,0.0,0.0));
#126=DIRECTION('',(-6.12323399573677E-017,-1.22464679914735E-016,1.0));
#127=DIRECTION('',(-1.23259516440783E-032,1.0,1.22464679914735E-016));
#128=SURFACE_STYLE_FILL_AREA(#145);
#129=ORIENTED_EDGE('',*,*,#33,.T.);
#130=CARTESIAN_POINT('',(0.0,4.0,0.0));
#131=DIRECTION('',(-6.12323399573677E-017,-1.22464679914735E-016,1.0));
#132=DIRECTION('',(-1.23259516440783E-032,1.0,1.22464679914735E-016));
#133=CARTESIAN_POINT('',(1.05319624726672E-014,2.10639249453344E-014,-172.0));
#134=DIRECTION('',(-6.12323399573677E-017,-1.22464679914735E-016,1.0));
#135=DIRECTION('',(-1.23259516440783E-032,1.0,1.22464679914735E-016));
#136=SURFACE_STYLE_FILL_AREA(#146);
#137=SURFACE_STYLE_FILL_AREA(#147);
#138=ORIENTED_EDGE('',*,*,#33,.F.);
#139=ORIENTED_EDGE('',*,*,#38,.T.);
#140=CARTESIAN_POINT('',(5.26598123633361E-015,1.05319624726672E-014,-85.9999999999998));
#141=DIRECTION('',(-6.12323399573677E-017,-1.22464679914735E-016,1.0));
#142=DIRECTION('',(-1.23259516440783E-032,1.0,1.22464679914735E-016));
#143=FILL_AREA_STYLE('',(#148));
#144=CARTESIAN_POINT('',(1.10218211923262E-014,2.20436423846523E-014,-180.0));
#145=FILL_AREA_STYLE('',(#149));
#146=FILL_AREA_STYLE('',(#150));
#147=FILL_AREA_STYLE('',(#151));
#148=FILL_AREA_STYLE_COLOUR('',#152);
#149=FILL_AREA_STYLE_COLOUR('',#153);
#150=FILL_AREA_STYLE_COLOUR('',#154);
#151=FILL_AREA_STYLE_COLOUR('',#155);
#152=COLOUR_RGB('',0.0,1.0,0.0);
#153=COLOUR_RGB('',0.0,1.0,0.0);
#154=COLOUR_RGB('',0.0,1.0,0.0);
#155=COLOUR_RGB('',0.0,1.0,0.0);
ENDSEC;
END-ISO-10303-21;
