ISO-10303-21;
HEADER;
FILE_DESCRIPTION((''),'1');
FILE_NAME('W:/Translate/999_Archive/\X2\30ED30EC30C330AF30B9\X0\_121113/ST16-C0214-30-40.stp','2012-11-15T04:48:30',(''),(''),'Spatial Interop R18','Kubotek KeyCreator V8.5.1 (14335)',' ');
FILE_SCHEMA(('CONFIG_CONTROL_DESIGN'));
ENDSEC;
DATA;
#1=DESIGN_CONTEXT('',#27,'design');
#2=APPLICATION_PROTOCOL_DEFINITION('INTERNATIONAL STANDARD','config_control_design',1994,#27);
#3=PRODUCT_CATEGORY_RELATIONSHIP('NONE','NONE',#28,#29);
#4=DATE_AND_TIME(#30,#31);
#5=DATE_TIME_ROLE('creation_date');
#6=DATE_TIME_ROLE('classification_date');
#7=PERSON_AND_ORGANIZATION_ROLE('creator');
#8=PERSON_AND_ORGANIZATION_ROLE('design_supplier');
#9=PERSON_AND_ORGANIZATION_ROLE('classification_officer');
#10=PERSON_AND_ORGANIZATION_ROLE('design_owner');
#11=APPROVAL_PERSON_ORGANIZATION(#32,#33,#34);
#12=APPROVAL_DATE_TIME(#4,#33);
#13=CC_DESIGN_APPROVAL(#33,(#35,#36,#37));
#14=CC_DESIGN_DATE_AND_TIME_ASSIGNMENT(#4,#5,(#37));
#15=CC_DESIGN_DATE_AND_TIME_ASSIGNMENT(#4,#6,(#35));
#16=CC_DESIGN_PERSON_AND_ORGANIZATION_ASSIGNMENT(#32,#10,(#38));
#17=CC_DESIGN_PERSON_AND_ORGANIZATION_ASSIGNMENT(#32,#7,(#37));
#18=CC_DESIGN_PERSON_AND_ORGANIZATION_ASSIGNMENT(#32,#7,(#36));
#19=CC_DESIGN_PERSON_AND_ORGANIZATION_ASSIGNMENT(#32,#8,(#36));
#20=CC_DESIGN_SECURITY_CLASSIFICATION(#35,(#36));
#21=CC_DESIGN_PERSON_AND_ORGANIZATION_ASSIGNMENT(#32,#9,(#35));
#22=SHAPE_DEFINITION_REPRESENTATION(#39,#40);
#23= (GEOMETRIC_REPRESENTATION_CONTEXT(3)GLOBAL_UNCERTAINTY_ASSIGNED_CONTEXT((#43))GLOBAL_UNIT_ASSIGNED_CONTEXT((#45,#46,#47))REPRESENTATION_CONTEXT('NONE','WORKSPACE'));
#27=APPLICATION_CONTEXT('CONFIGURATION CONTROLLED 3D DESIGNS OF MECHANICAL PARTS AND ASSEMBLIES');
#28=PRODUCT_CATEGORY('part','NONE');
#29=PRODUCT_RELATED_PRODUCT_CATEGORY('detail',' ',(#38));
#30=CALENDAR_DATE(2012,15,10);
#31=LOCAL_TIME(13,48,30.0,#49);
#32=PERSON_AND_ORGANIZATION(#50,#51);
#33=APPROVAL(#52,'SOLID MODEL');
#34=APPROVAL_ROLE('APPROVED');
#35=SECURITY_CLASSIFICATION('','',#53);
#36=PRODUCT_DEFINITION_FORMATION_WITH_SPECIFIED_SOURCE(' ','NONE',#38,.NOT_KNOWN.);
#37=PRODUCT_DEFINITION('NONE','NONE',#36,#1);
#38=PRODUCT('1','1','PART-1-DESC',(#54));
#39=PRODUCT_DEFINITION_SHAPE('NONE','NONE',#37);
#40=ADVANCED_BREP_SHAPE_REPRESENTATION('1',(#55,#56),#23);
#43=UNCERTAINTY_MEASURE_WITH_UNIT(LENGTH_MEASURE(1.0E-006),#45,'','');
#45= (CONVERSION_BASED_UNIT('MILLIMETRE',#59)LENGTH_UNIT()NAMED_UNIT(#62));
#46= (NAMED_UNIT(#64)PLANE_ANGLE_UNIT()SI_UNIT($,.RADIAN.));
#47= (NAMED_UNIT(#64)SOLID_ANGLE_UNIT()SI_UNIT($,.STERADIAN.));
#49=COORDINATED_UNIVERSAL_TIME_OFFSET(9,0,.AHEAD.);
#50=PERSON('','UNSPECIFIED',$,$,$,$);
#51=ORGANIZATION('UNSPECIFIED','UNSPECIFIED','UNSPECIFIED');
#52=APPROVAL_STATUS('approved');
#53=SECURITY_CLASSIFICATION_LEVEL('unclassified');
#54=MECHANICAL_CONTEXT('',#27,'mechanical');
#55=MANIFOLD_SOLID_BREP('1',#70);
#56=AXIS2_PLACEMENT_3D('',#71,#72,#73);
#59=LENGTH_MEASURE_WITH_UNIT(LENGTH_MEASURE(1.0),#74);
#62=DIMENSIONAL_EXPONENTS(1.0,0.0,0.0,0.0,0.0,0.0,0.0);
#64=DIMENSIONAL_EXPONENTS(0.0,0.0,0.0,0.0,0.0,0.0,0.0);
#70=CLOSED_SHELL('',(#75,#76,#77,#78,#79,#80,#81,#82,#83));
#71=CARTESIAN_POINT('',(0.0,0.0,0.0));
#72=DIRECTION('',(0.0,0.0,1.0));
#73=DIRECTION('',(1.0,0.0,0.0));
#74= (NAMED_UNIT(#62)LENGTH_UNIT()SI_UNIT(.MILLI.,.METRE.));
#75=ADVANCED_FACE('',(#85),#86,.T.);
#76=ADVANCED_FACE('',(#87,#88),#89,.T.);
#77=ADVANCED_FACE('',(#90,#91),#92,.T.);
#78=ADVANCED_FACE('',(#93,#94),#95,.T.);
#79=ADVANCED_FACE('',(#96,#97),#98,.T.);
#80=ADVANCED_FACE('',(#99,#100),#101,.T.);
#81=ADVANCED_FACE('',(#102,#103),#104,.T.);
#82=ADVANCED_FACE('',(#105,#106),#107,.T.);
#83=ADVANCED_FACE('',(#108,#109),#110,.F.);
#85=FACE_OUTER_BOUND('',#111,.T.);
#86=PLANE('',#112);
#87=FACE_BOUND('',#113,.T.);
#88=FACE_BOUND('',#114,.T.);
#89=CYLINDRICAL_SURFACE('',#115,8.00000000000001);
#90=FACE_BOUND('',#116,.T.);
#91=FACE_BOUND('',#117,.T.);
#92=CONICAL_SURFACE('',#118,7.85000000000002,0.78539816339161);
#93=FACE_BOUND('',#119,.T.);
#94=FACE_BOUND('',#120,.T.);
#95=CYLINDRICAL_SURFACE('',#121,7.70000000000003);
#96=FACE_BOUND('',#122,.T.);
#97=FACE_BOUND('',#123,.T.);
#98=CONICAL_SURFACE('',#124,7.62915509817693,0.0258153919171753);
#99=FACE_BOUND('',#125,.T.);
#100=FACE_BOUND('',#126,.T.);
#101=CONICAL_SURFACE('',#127,7.76146831731122,0.523598817626275);
#102=FACE_BOUND('',#128,.T.);
#103=FACE_BOUND('',#129,.T.);
#104=CONICAL_SURFACE('',#130,7.78161406661776,0.261799387799155);
#105=FACE_BOUND('',#131,.T.);
#106=FACE_BOUND('',#132,.T.);
#107=CONICAL_SURFACE('',#133,4.1344990973113,1.04719758797106);
#108=FACE_BOUND('',#134,.T.);
#109=FACE_BOUND('',#135,.T.);
#110=CONICAL_SURFACE('',#136,0.335198249827848,1.30899693899579);
#111=EDGE_LOOP('',(#137));
#112=AXIS2_PLACEMENT_3D('',#138,#139,#140);
#113=EDGE_LOOP('',(#141));
#114=EDGE_LOOP('',(#142));
#115=AXIS2_PLACEMENT_3D('',#143,#144,#145);
#116=EDGE_LOOP('',(#146));
#117=EDGE_LOOP('',(#147));
#118=AXIS2_PLACEMENT_3D('',#148,#149,#150);
#119=EDGE_LOOP('',(#151));
#120=EDGE_LOOP('',(#152));
#121=AXIS2_PLACEMENT_3D('',#153,#154,#155);
#122=EDGE_LOOP('',(#156));
#123=EDGE_LOOP('',(#157));
#124=AXIS2_PLACEMENT_3D('',#158,#159,#160);
#125=EDGE_LOOP('',(#161));
#126=EDGE_LOOP('',(#162));
#127=AXIS2_PLACEMENT_3D('',#163,#164,#165);
#128=EDGE_LOOP('',(#166));
#129=EDGE_LOOP('',(#167));
#130=AXIS2_PLACEMENT_3D('',#168,#169,#170);
#131=EDGE_LOOP('',(#171));
#132=EDGE_LOOP('',(#172));
#133=AXIS2_PLACEMENT_3D('',#173,#174,#175);
#134=VERTEX_LOOP('',#176);
#135=EDGE_LOOP('',(#177));
#136=AXIS2_PLACEMENT_3D('',#178,#179,#180);
#137=ORIENTED_EDGE('',*,*,#181,.F.);
#138=CARTESIAN_POINT('',(-6.46015578525E-015,4.0,105.502350387848));
#139=DIRECTION('',(-6.12323399573677E-017,-1.22464679914735E-016,1.0));
#140=DIRECTION('',(1.23259516440783E-032,-1.0,-1.22464679914735E-016));
#141=ORIENTED_EDGE('',*,*,#182,.F.);
#142=ORIENTED_EDGE('',*,*,#181,.T.);
#143=CARTESIAN_POINT('',(-4.47928958762916E-015,8.04437576106728E-016,73.1523503878475));
#144=DIRECTION('',(-6.12323399573676E-017,6.80939679576554E-018,1.0));
#145=DIRECTION('',(-4.4101974312661E-033,1.0,-6.80939679576554E-018));
#146=ORIENTED_EDGE('',*,*,#183,.F.);
#147=ORIENTED_EDGE('',*,*,#182,.T.);
#148=CARTESIAN_POINT('',(-2.4892385390146E-015,5.83132180244336E-016,40.6523503878458));
#149=DIRECTION('',(-6.12323399573677E-017,6.80939679576554E-018,1.0));
#150=DIRECTION('',(-4.4101974312661E-033,1.0,-6.80939679576555E-018));
#151=ORIENTED_EDGE('',*,*,#184,.F.);
#152=ORIENTED_EDGE('',*,*,#183,.T.);
#153=CARTESIAN_POINT('',(-1.59341449840399E-015,4.83511271490062E-016,26.0224335622874));
#154=DIRECTION('',(-6.12323399573677E-017,6.80939679576555E-018,1.0));
#155=DIRECTION('',(-4.4101974312661E-033,1.0,-6.80939679576555E-018));
#156=ORIENTED_EDGE('',*,*,#185,.F.);
#157=ORIENTED_EDGE('',*,*,#184,.T.);
#158=CARTESIAN_POINT('',(-5.38773388857159E-016,3.66228969408665E-016,8.79883717055847));
#159=DIRECTION('',(-6.12323399573677E-017,6.80939679576555E-018,1.0));
#160=DIRECTION('',(-4.4101974312661E-033,1.0,-6.80939679576555E-018));
#161=ORIENTED_EDGE('',*,*,#186,.F.);
#162=ORIENTED_EDGE('',*,*,#185,.T.);
#163=CARTESIAN_POINT('',(-3.49225023755178E-016,3.45150074973687E-016,5.70327745107115));
#164=DIRECTION('',(6.12323399573677E-017,-6.80939679576554E-018,-1.0));
#165=DIRECTION('',(-4.4101974312661E-033,1.0,-6.80939679576554E-018));
#166=ORIENTED_EDGE('',*,*,#187,.F.);
#167=ORIENTED_EDGE('',*,*,#186,.T.);
#168=CARTESIAN_POINT('',(-2.85856188093157E-016,3.38103087273906E-016,4.66838582834138));
#169=DIRECTION('',(-6.12323399573677E-017,6.80939679576556E-018,1.0));
#170=DIRECTION('',(-4.4101974312661E-033,1.0,-6.80939679576556E-018));
#171=ORIENTED_EDGE('',*,*,#188,.F.);
#172=ORIENTED_EDGE('',*,*,#187,.T.);
#173=CARTESIAN_POINT('',(-1.21569093354532E-016,3.19833394864998E-016,1.98537396152382));
#174=DIRECTION('',(-6.12323399573677E-017,6.80939679576553E-018,1.0));
#175=DIRECTION('',(-4.4101974312661E-033,1.0,-6.80939679576553E-018));
#176=VERTEX_POINT('',#189);
#177=ORIENTED_EDGE('',*,*,#188,.T.);
#178=CARTESIAN_POINT('',(-4.60403909589791E-018,3.06826192033295E-016,0.0751896644665779));
#179=DIRECTION('',(6.12323399573677E-017,-6.80939679576554E-018,-1.0));
#180=DIRECTION('',(-4.4101974312661E-033,1.0,-6.80939679576554E-018));
#181=EDGE_CURVE('',#190,#190,#191,.T.);
#182=EDGE_CURVE('',#192,#192,#193,.T.);
#183=EDGE_CURVE('',#194,#194,#195,.T.);
#184=EDGE_CURVE('',#196,#196,#197,.T.);
#185=EDGE_CURVE('',#198,#198,#199,.T.);
#186=EDGE_CURVE('',#200,#200,#201,.T.);
#187=EDGE_CURVE('',#202,#202,#203,.T.);
#188=EDGE_CURVE('',#204,#204,#205,.T.);
#189=CARTESIAN_POINT('',(-1.01036890859097E-017,4.23881831678243E-016,0.165005764812259));
#190=VERTEX_POINT('',#206);
#191=CIRCLE('',#207,8.0);
#192=VERTEX_POINT('',#208);
#193=CIRCLE('',#209,8.00000000000001);
#194=VERTEX_POINT('',#210);
#195=CIRCLE('',#211,7.70000000000003);
#196=VERTEX_POINT('',#212);
#197=CIRCLE('',#213,7.70000000000003);
#198=VERTEX_POINT('',#214);
#199=CIRCLE('',#215,7.55831019635383);
#200=VERTEX_POINT('',#216);
#201=CIRCLE('',#217,7.96462643826861);
#202=VERTEX_POINT('',#218);
#203=CIRCLE('',#219,7.59860169496691);
#204=VERTEX_POINT('',#220);
#205=CIRCLE('',#221,0.670396499655695);
#206=CARTESIAN_POINT('',(-6.46015578525E-015,8.0,105.502350387848));
#207=AXIS2_PLACEMENT_3D('',#222,#223,#224);
#208=CARTESIAN_POINT('',(-2.49842339000831E-015,8.00000000000001,40.8023503878475));
#209=AXIS2_PLACEMENT_3D('',#225,#226,#227);
#210=CARTESIAN_POINT('',(-2.48005368802089E-015,7.70000000000003,40.5023503878441));
#211=AXIS2_PLACEMENT_3D('',#228,#229,#230);
#212=CARTESIAN_POINT('',(-7.06775308787099E-016,7.70000000000003,11.5425167367307));
#213=AXIS2_PLACEMENT_3D('',#231,#232,#233);
#214=CARTESIAN_POINT('',(-3.7077146892722E-016,7.55831019635383,6.05515760438627));
#215=AXIS2_PLACEMENT_3D('',#234,#235,#236);
#216=CARTESIAN_POINT('',(-3.27678578583135E-016,7.96462643826861,5.35139729775602));
#217=AXIS2_PLACEMENT_3D('',#237,#238,#239);
#218=CARTESIAN_POINT('',(-2.44033797603178E-016,7.59860169496691,3.98537435892674));
#219=AXIS2_PLACEMENT_3D('',#240,#241,#242);
#220=CARTESIAN_POINT('',(8.95610894113865E-019,0.670396499655695,-0.0146264358791029));
#221=AXIS2_PLACEMENT_3D('',#243,#244,#245);
#222=CARTESIAN_POINT('',(-6.46015578525E-015,1.02472156244974E-015,105.502350387848));
#223=DIRECTION('',(6.12323399573677E-017,-6.80939679576554E-018,-1.0));
#224=DIRECTION('',(-4.4101974312661E-033,1.0,-6.80939679576554E-018));
#225=CARTESIAN_POINT('',(-2.49842339000831E-015,5.84153589763713E-016,40.8023503878475));
#226=DIRECTION('',(6.12323399573677E-017,-6.80939679576554E-018,-1.0));
#227=DIRECTION('',(-4.4101974312661E-033,1.0,-6.80939679576554E-018));
#228=CARTESIAN_POINT('',(-2.48005368802089E-015,5.82110770724959E-016,40.5023503878441));
#229=DIRECTION('',(6.12323399573677E-017,-6.80939679576555E-018,-1.0));
#230=DIRECTION('',(-4.4101974312661E-033,1.0,-6.80939679576555E-018));
#231=CARTESIAN_POINT('',(-7.06775308787099E-016,3.84911772255165E-016,11.5425167367307));
#232=DIRECTION('',(6.12323399573677E-017,-6.80939679576555E-018,-1.0));
#233=DIRECTION('',(-4.4101974312661E-033,1.0,-6.80939679576555E-018));
#234=CARTESIAN_POINT('',(-3.7077146892722E-016,3.47546166562164E-016,6.05515760438627));
#235=DIRECTION('',(6.12323399573676E-017,-6.80939679576555E-018,-1.0));
#236=DIRECTION('',(-4.4101974312661E-033,1.0,-6.80939679576555E-018));
#237=CARTESIAN_POINT('',(-3.27678578583135E-016,3.42753983385209E-016,5.35139729775602));
#238=DIRECTION('',(6.12323399573677E-017,-6.80939679576555E-018,-1.0));
#239=DIRECTION('',(-4.4101974312661E-033,1.0,-6.80939679576555E-018));
#240=CARTESIAN_POINT('',(-2.44033797603178E-016,3.33452191162603E-016,3.98537435892674));
#241=DIRECTION('',(6.12323399573677E-017,-6.80939679576554E-018,-1.0));
#242=DIRECTION('',(-4.4101974312661E-033,1.0,-6.80939679576554E-018));
#243=CARTESIAN_POINT('',(8.95610894113868E-019,3.06214598567392E-016,-0.0146264358791029));
#244=DIRECTION('',(6.12323399573677E-017,-6.80939679576554E-018,-1.0));
#245=DIRECTION('',(-4.4101974312661E-033,1.0,-6.80939679576554E-018));
ENDSEC;
END-ISO-10303-21;
