ISO-10303-21;
HEADER;
FILE_DESCRIPTION((''),'1');
FILE_NAME('T:/00_BIG-HP\X2\FF71FF6FFF8CFF9F\X0\/2022_\X2\30C030A630F330ED30FC30C930C730FC30BF\X0\/02_STEP\X2\FF83FF9EFF70FF80\X0\/LINK\X2\7528FF83FF9EFF70FF80FF8EFF99FF80FF9E\X0\/CK\X2\FF8DFF6FFF84FF9E30FBFF71FF78FF7EFF7BFF98\X0\/10_\X2\4ED54E0A305275284E38FF8AFF9EFF72FF84FF7CFF98FF70FF7DFF9E\X0\/02_\X2\4E38FF8AFF9EFF72FF84FF7CFF6CFF9DFF78\X0\/\X2\5C5E6027590966F4\X0\/ST14W-M6-100.stp','2022-09-05T02:58:45',(''),(''),'Spatial Interop R21 SP3','Kubotek KeyCreator 2011 V10.0.2 (22737)',' ');
FILE_SCHEMA(('automotive_design'));
ENDSEC;
DATA;
#1=MECHANICAL_DESIGN_GEOMETRIC_PRESENTATION_REPRESENTATION(' ',(#10,#11,#12,#13,#14,#15),#6);
#2=PRODUCT_DEFINITION_CONTEXT('',#16,'design');
#3=APPLICATION_PROTOCOL_DEFINITION('INTERNATIONAL STANDARD','automotive_design',1994,#16);
#4=PRODUCT_CATEGORY_RELATIONSHIP('NONE','NONE',#17,#18);
#5=SHAPE_DEFINITION_REPRESENTATION(#19,#20);
#6= (GEOMETRIC_REPRESENTATION_CONTEXT(3)GLOBAL_UNCERTAINTY_ASSIGNED_CONTEXT((#23))GLOBAL_UNIT_ASSIGNED_CONTEXT((#25,#26,#27))REPRESENTATION_CONTEXT('NONE','WORKSPACE'));
#10=STYLED_ITEM('',(#29,#30),#31);
#11=STYLED_ITEM('',(#32,#33),#34);
#12=STYLED_ITEM('',(#35,#36),#37);
#13=STYLED_ITEM('',(#38),#39);
#14=STYLED_ITEM('',(#40),#41);
#15=STYLED_ITEM('',(#42,#43),#44);
#16=APPLICATION_CONTEXT(' ');
#17=PRODUCT_CATEGORY('part','NONE');
#18=PRODUCT_RELATED_PRODUCT_CATEGORY('detail',' ',(#45));
#19=PRODUCT_DEFINITION_SHAPE('NONE','NONE',#46);
#20=ADVANCED_BREP_SHAPE_REPRESENTATION('240[2]',(#31,#47),#6);
#23=UNCERTAINTY_MEASURE_WITH_UNIT(LENGTH_MEASURE(1.0E-006),#25,'','');
#25= (CONVERSION_BASED_UNIT('MILLIMETRE',#50)LENGTH_UNIT()NAMED_UNIT(#53));
#26= (NAMED_UNIT(#55)PLANE_ANGLE_UNIT()SI_UNIT($,.RADIAN.));
#27= (NAMED_UNIT(#55)SOLID_ANGLE_UNIT()SI_UNIT($,.STERADIAN.));
#29=PRESENTATION_STYLE_ASSIGNMENT((#61));
#30=PRESENTATION_STYLE_ASSIGNMENT((#62));
#31=MANIFOLD_SOLID_BREP('240[2]',#63);
#32=PRESENTATION_STYLE_ASSIGNMENT((#64));
#33=PRESENTATION_STYLE_ASSIGNMENT((#65));
#34=ADVANCED_FACE('240[2]',(#66),#67,.T.);
#35=PRESENTATION_STYLE_ASSIGNMENT((#68));
#36=PRESENTATION_STYLE_ASSIGNMENT((#69));
#37=ADVANCED_FACE('240[2]',(#70,#71),#72,.T.);
#38=PRESENTATION_STYLE_ASSIGNMENT((#73));
#39=EDGE_CURVE('240[2]',#74,#74,#75,.T.);
#40=PRESENTATION_STYLE_ASSIGNMENT((#76));
#41=EDGE_CURVE('240[2]',#77,#77,#78,.T.);
#42=PRESENTATION_STYLE_ASSIGNMENT((#79));
#43=PRESENTATION_STYLE_ASSIGNMENT((#80));
#44=ADVANCED_FACE('240[2]',(#81),#82,.T.);
#45=PRODUCT('240[2]','240[2]','PART-240[2]-DESC',(#83));
#46=PRODUCT_DEFINITION('NONE','NONE',#84,#2);
#47=AXIS2_PLACEMENT_3D('',#85,#86,#87);
#50=LENGTH_MEASURE_WITH_UNIT(LENGTH_MEASURE(1.0),#88);
#53=DIMENSIONAL_EXPONENTS(1.0,0.0,0.0,0.0,0.0,0.0,0.0);
#55=DIMENSIONAL_EXPONENTS(0.0,0.0,0.0,0.0,0.0,0.0,0.0);
#61=SURFACE_STYLE_USAGE(.BOTH.,#89);
#62=CURVE_STYLE('',#90,POSITIVE_LENGTH_MEASURE(1000.0),#91);
#63=CLOSED_SHELL('',(#34,#37,#44));
#64=SURFACE_STYLE_USAGE(.BOTH.,#92);
#65=CURVE_STYLE('',#93,POSITIVE_LENGTH_MEASURE(1000.0),#94);
#66=FACE_OUTER_BOUND('',#95,.T.);
#67=PLANE('',#96);
#68=SURFACE_STYLE_USAGE(.BOTH.,#97);
#69=CURVE_STYLE('',#98,POSITIVE_LENGTH_MEASURE(1000.0),#99);
#70=FACE_BOUND('',#100,.T.);
#71=FACE_BOUND('',#101,.T.);
#72=CYLINDRICAL_SURFACE('',#102,7.0);
#73=CURVE_STYLE('',#103,POSITIVE_LENGTH_MEASURE(1000.0),#104);
#74=VERTEX_POINT('',#105);
#75=CIRCLE('',#106,7.0);
#76=CURVE_STYLE('',#107,POSITIVE_LENGTH_MEASURE(1000.0),#108);
#77=VERTEX_POINT('',#109);
#78=CIRCLE('',#110,7.0);
#79=SURFACE_STYLE_USAGE(.BOTH.,#111);
#80=CURVE_STYLE('',#112,POSITIVE_LENGTH_MEASURE(1000.0),#113);
#81=FACE_OUTER_BOUND('',#114,.T.);
#82=PLANE('',#115);
#83=PRODUCT_CONTEXT('',#16,'mechanical');
#84=PRODUCT_DEFINITION_FORMATION_WITH_SPECIFIED_SOURCE(' ','NONE',#45,.NOT_KNOWN.);
#85=CARTESIAN_POINT('',(0.0,0.0,0.0));
#86=DIRECTION('',(0.0,0.0,1.0));
#87=DIRECTION('',(1.0,0.0,0.0));
#88= (NAMED_UNIT(#53)LENGTH_UNIT()SI_UNIT(.MILLI.,.METRE.));
#89=SURFACE_SIDE_STYLE('',(#117));
#90=DRAUGHTING_PRE_DEFINED_CURVE_FONT('continuous');
#91=COLOUR_RGB('',0.501960813999176,0.501960813999176,0.501960813999176);
#92=SURFACE_SIDE_STYLE('',(#118));
#93=DRAUGHTING_PRE_DEFINED_CURVE_FONT('continuous');
#94=COLOUR_RGB('',0.501960813999176,0.501960813999176,0.501960813999176);
#95=EDGE_LOOP('',(#119));
#96=AXIS2_PLACEMENT_3D('',#120,#121,#122);
#97=SURFACE_SIDE_STYLE('',(#123));
#98=DRAUGHTING_PRE_DEFINED_CURVE_FONT('continuous');
#99=COLOUR_RGB('',0.501960813999176,0.501960813999176,0.501960813999176);
#100=EDGE_LOOP('',(#124));
#101=EDGE_LOOP('',(#125));
#102=AXIS2_PLACEMENT_3D('',#126,#127,#128);
#103=DRAUGHTING_PRE_DEFINED_CURVE_FONT('continuous');
#104=COLOUR_RGB('',0.501960813999176,0.501960813999176,0.501960813999176);
#105=CARTESIAN_POINT('',(-8.62816615085482E-032,7.0,8.57252759403147E-016));
#106=AXIS2_PLACEMENT_3D('',#129,#130,#131);
#107=DRAUGHTING_PRE_DEFINED_CURVE_FONT('continuous');
#108=COLOUR_RGB('',0.501960813999176,0.501960813999176,0.501960813999176);
#109=CARTESIAN_POINT('',(-7.16418377501202E-015,6.99999999999999,117.0));
#110=AXIS2_PLACEMENT_3D('',#132,#133,#134);
#111=SURFACE_SIDE_STYLE('',(#135));
#112=DRAUGHTING_PRE_DEFINED_CURVE_FONT('continuous');
#113=COLOUR_RGB('',0.501960813999176,0.501960813999176,0.501960813999176);
#114=EDGE_LOOP('',(#136));
#115=AXIS2_PLACEMENT_3D('',#137,#138,#139);
#117=SURFACE_STYLE_FILL_AREA(#140);
#118=SURFACE_STYLE_FILL_AREA(#141);
#119=ORIENTED_EDGE('',*,*,#41,.F.);
#120=CARTESIAN_POINT('',(-7.16418377501202E-015,3.49999999999999,117.0));
#121=DIRECTION('',(7.49879891330927E-033,-1.22464679914735E-016,1.0));
#122=DIRECTION('',(1.0,6.12323399573677E-017,0.0));
#123=SURFACE_STYLE_FILL_AREA(#142);
#124=ORIENTED_EDGE('',*,*,#39,.F.);
#125=ORIENTED_EDGE('',*,*,#41,.T.);
#126=CARTESIAN_POINT('',(-3.58209188750601E-015,-7.16418377501201E-015,58.5));
#127=DIRECTION('',(6.12323399573677E-017,1.22464679914735E-016,-1.0));
#128=DIRECTION('',(-1.23259516440783E-032,1.0,1.22464679914735E-016));
#129=CARTESIAN_POINT('',(0.0,0.0,0.0));
#130=DIRECTION('',(6.12323399573677E-017,1.22464679914735E-016,-1.0));
#131=DIRECTION('',(-1.23259516440783E-032,1.0,1.22464679914735E-016));
#132=CARTESIAN_POINT('',(-7.16418377501202E-015,-1.4328367550024E-014,117.0));
#133=DIRECTION('',(6.12323399573677E-017,1.22464679914735E-016,-1.0));
#134=DIRECTION('',(-1.23259516440783E-032,1.0,1.22464679914735E-016));
#135=SURFACE_STYLE_FILL_AREA(#143);
#136=ORIENTED_EDGE('',*,*,#39,.T.);
#137=CARTESIAN_POINT('',(-4.31408307542741E-032,3.5,4.28626379701574E-016));
#138=DIRECTION('',(6.12323399573677E-017,1.22464679914735E-016,-1.0));
#139=DIRECTION('',(-1.0,0.0,-6.12323399573677E-017));
#140=FILL_AREA_STYLE('',(#144));
#141=FILL_AREA_STYLE('',(#145));
#142=FILL_AREA_STYLE('',(#146));
#143=FILL_AREA_STYLE('',(#147));
#144=FILL_AREA_STYLE_COLOUR('',#148);
#145=FILL_AREA_STYLE_COLOUR('',#149);
#146=FILL_AREA_STYLE_COLOUR('',#150);
#147=FILL_AREA_STYLE_COLOUR('',#151);
#148=COLOUR_RGB('',0.501960813999176,0.501960813999176,0.501960813999176);
#149=COLOUR_RGB('',0.501960813999176,0.501960813999176,0.501960813999176);
#150=COLOUR_RGB('',0.501960813999176,0.501960813999176,0.501960813999176);
#151=COLOUR_RGB('',0.501960813999176,0.501960813999176,0.501960813999176);
ENDSEC;
END-ISO-10303-21;
