ISO-10303-21;
HEADER;
FILE_DESCRIPTION((''),'1');
FILE_NAME('T:/00_BIG-HP\X2\FF71FF6FFF8CFF9F\X0\/2022_\X2\30C030A630F330ED30FC30C930C730FC30BF\X0\/02_STEP\X2\FF83FF9EFF70FF80\X0\/LINK\X2\7528FF83FF9EFF70FF80FF8EFF99FF80FF9E\X0\/CK\X2\FF8DFF6FFF84FF9E30FBFF71FF78FF7EFF7BFF98\X0\/10_\X2\4ED54E0A305275284E38FF8AFF9EFF72FF84FF7CFF98FF70FF7DFF9E\X0\/02_\X2\4E38FF8AFF9EFF72FF84FF7CFF6CFF9DFF78\X0\/\X2\5C5E6027590966F4\X0\/ST14-M6-70.stp','2022-09-05T02:58:09',(''),(''),'Spatial Interop R21 SP3','Kubotek KeyCreator 2011 V10.0.2 (22737)',' ');
FILE_SCHEMA(('automotive_design'));
ENDSEC;
DATA;
#1=MECHANICAL_DESIGN_GEOMETRIC_PRESENTATION_REPRESENTATION(' ',(#10,#11,#12,#13,#14,#15),#6);
#2=PRODUCT_DEFINITION_CONTEXT('',#16,'design');
#3=APPLICATION_PROTOCOL_DEFINITION('INTERNATIONAL STANDARD','automotive_design',1994,#16);
#4=PRODUCT_CATEGORY_RELATIONSHIP('NONE','NONE',#17,#18);
#5=SHAPE_DEFINITION_REPRESENTATION(#19,#20);
#6= (GEOMETRIC_REPRESENTATION_CONTEXT(3)GLOBAL_UNCERTAINTY_ASSIGNED_CONTEXT((#23))GLOBAL_UNIT_ASSIGNED_CONTEXT((#25,#26,#27))REPRESENTATION_CONTEXT('NONE','WORKSPACE'));
#10=STYLED_ITEM('',(#29,#30),#31);
#11=STYLED_ITEM('',(#32,#33),#34);
#12=STYLED_ITEM('',(#35,#36),#37);
#13=STYLED_ITEM('',(#38,#39),#40);
#14=STYLED_ITEM('',(#41),#42);
#15=STYLED_ITEM('',(#43),#44);
#16=APPLICATION_CONTEXT(' ');
#17=PRODUCT_CATEGORY('part','NONE');
#18=PRODUCT_RELATED_PRODUCT_CATEGORY('detail',' ',(#45));
#19=PRODUCT_DEFINITION_SHAPE('NONE','NONE',#46);
#20=ADVANCED_BREP_SHAPE_REPRESENTATION('240[2]',(#31,#47),#6);
#23=UNCERTAINTY_MEASURE_WITH_UNIT(LENGTH_MEASURE(1.0E-006),#25,'','');
#25= (CONVERSION_BASED_UNIT('MILLIMETRE',#50)LENGTH_UNIT()NAMED_UNIT(#53));
#26= (NAMED_UNIT(#55)PLANE_ANGLE_UNIT()SI_UNIT($,.RADIAN.));
#27= (NAMED_UNIT(#55)SOLID_ANGLE_UNIT()SI_UNIT($,.STERADIAN.));
#29=PRESENTATION_STYLE_ASSIGNMENT((#61));
#30=PRESENTATION_STYLE_ASSIGNMENT((#62));
#31=MANIFOLD_SOLID_BREP('240[2]',#63);
#32=PRESENTATION_STYLE_ASSIGNMENT((#64));
#33=PRESENTATION_STYLE_ASSIGNMENT((#65));
#34=ADVANCED_FACE('240[2]',(#66),#67,.T.);
#35=PRESENTATION_STYLE_ASSIGNMENT((#68));
#36=PRESENTATION_STYLE_ASSIGNMENT((#69));
#37=ADVANCED_FACE('240[2]',(#70,#71),#72,.T.);
#38=PRESENTATION_STYLE_ASSIGNMENT((#73));
#39=PRESENTATION_STYLE_ASSIGNMENT((#74));
#40=ADVANCED_FACE('240[2]',(#75),#76,.T.);
#41=PRESENTATION_STYLE_ASSIGNMENT((#77));
#42=EDGE_CURVE('240[2]',#78,#78,#79,.T.);
#43=PRESENTATION_STYLE_ASSIGNMENT((#80));
#44=EDGE_CURVE('240[2]',#81,#81,#82,.T.);
#45=PRODUCT('240[2]','240[2]','PART-240[2]-DESC',(#83));
#46=PRODUCT_DEFINITION('NONE','NONE',#84,#2);
#47=AXIS2_PLACEMENT_3D('',#85,#86,#87);
#50=LENGTH_MEASURE_WITH_UNIT(LENGTH_MEASURE(1.0),#88);
#53=DIMENSIONAL_EXPONENTS(1.0,0.0,0.0,0.0,0.0,0.0,0.0);
#55=DIMENSIONAL_EXPONENTS(0.0,0.0,0.0,0.0,0.0,0.0,0.0);
#61=SURFACE_STYLE_USAGE(.BOTH.,#89);
#62=CURVE_STYLE('',#90,POSITIVE_LENGTH_MEASURE(1000.0),#91);
#63=CLOSED_SHELL('',(#34,#37,#40));
#64=SURFACE_STYLE_USAGE(.BOTH.,#92);
#65=CURVE_STYLE('',#93,POSITIVE_LENGTH_MEASURE(1000.0),#94);
#66=FACE_OUTER_BOUND('',#95,.T.);
#67=PLANE('',#96);
#68=SURFACE_STYLE_USAGE(.BOTH.,#97);
#69=CURVE_STYLE('',#98,POSITIVE_LENGTH_MEASURE(1000.0),#99);
#70=FACE_BOUND('',#100,.T.);
#71=FACE_BOUND('',#101,.T.);
#72=CYLINDRICAL_SURFACE('',#102,7.0);
#73=SURFACE_STYLE_USAGE(.BOTH.,#103);
#74=CURVE_STYLE('',#104,POSITIVE_LENGTH_MEASURE(1000.0),#105);
#75=FACE_OUTER_BOUND('',#106,.T.);
#76=PLANE('',#107);
#77=CURVE_STYLE('',#108,POSITIVE_LENGTH_MEASURE(1000.0),#109);
#78=VERTEX_POINT('',#110);
#79=CIRCLE('',#111,7.0);
#80=CURVE_STYLE('',#112,POSITIVE_LENGTH_MEASURE(1000.0),#113);
#81=VERTEX_POINT('',#114);
#82=CIRCLE('',#115,7.0);
#83=PRODUCT_CONTEXT('',#16,'mechanical');
#84=PRODUCT_DEFINITION_FORMATION_WITH_SPECIFIED_SOURCE(' ','NONE',#45,.NOT_KNOWN.);
#85=CARTESIAN_POINT('',(0.0,0.0,0.0));
#86=DIRECTION('',(0.0,0.0,1.0));
#87=DIRECTION('',(1.0,0.0,0.0));
#88= (NAMED_UNIT(#53)LENGTH_UNIT()SI_UNIT(.MILLI.,.METRE.));
#89=SURFACE_SIDE_STYLE('',(#117));
#90=DRAUGHTING_PRE_DEFINED_CURVE_FONT('continuous');
#91=COLOUR_RGB('',0.501960813999176,0.501960813999176,0.501960813999176);
#92=SURFACE_SIDE_STYLE('',(#118));
#93=DRAUGHTING_PRE_DEFINED_CURVE_FONT('continuous');
#94=COLOUR_RGB('',0.501960813999176,0.501960813999176,0.501960813999176);
#95=EDGE_LOOP('',(#119));
#96=AXIS2_PLACEMENT_3D('',#120,#121,#122);
#97=SURFACE_SIDE_STYLE('',(#123));
#98=DRAUGHTING_PRE_DEFINED_CURVE_FONT('continuous');
#99=COLOUR_RGB('',0.501960813999176,0.501960813999176,0.501960813999176);
#100=EDGE_LOOP('',(#124));
#101=EDGE_LOOP('',(#125));
#102=AXIS2_PLACEMENT_3D('',#126,#127,#128);
#103=SURFACE_SIDE_STYLE('',(#129));
#104=DRAUGHTING_PRE_DEFINED_CURVE_FONT('continuous');
#105=COLOUR_RGB('',0.501960813999176,0.501960813999176,0.501960813999176);
#106=EDGE_LOOP('',(#130));
#107=AXIS2_PLACEMENT_3D('',#131,#132,#133);
#108=DRAUGHTING_PRE_DEFINED_CURVE_FONT('continuous');
#109=COLOUR_RGB('',0.501960813999176,0.501960813999176,0.501960813999176);
#110=CARTESIAN_POINT('',(-8.62816615085482E-032,7.0,8.57252759403147E-016));
#111=AXIS2_PLACEMENT_3D('',#134,#135,#136);
#112=DRAUGHTING_PRE_DEFINED_CURVE_FONT('continuous');
#113=COLOUR_RGB('',0.501960813999176,0.501960813999176,0.501960813999176);
#114=CARTESIAN_POINT('',(-5.32721357629099E-015,6.99999999999999,87.0));
#115=AXIS2_PLACEMENT_3D('',#137,#138,#139);
#117=SURFACE_STYLE_FILL_AREA(#140);
#118=SURFACE_STYLE_FILL_AREA(#141);
#119=ORIENTED_EDGE('',*,*,#44,.F.);
#120=CARTESIAN_POINT('',(-5.32721357629099E-015,3.49999999999999,87.0));
#121=DIRECTION('',(7.49879891330927E-033,-1.22464679914735E-016,1.0));
#122=DIRECTION('',(1.0,6.12323399573677E-017,0.0));
#123=SURFACE_STYLE_FILL_AREA(#142);
#124=ORIENTED_EDGE('',*,*,#42,.F.);
#125=ORIENTED_EDGE('',*,*,#44,.T.);
#126=CARTESIAN_POINT('',(-2.66360678814549E-015,-5.32721357629099E-015,43.5));
#127=DIRECTION('',(6.12323399573677E-017,1.22464679914735E-016,-1.0));
#128=DIRECTION('',(-1.23259516440783E-032,1.0,1.22464679914735E-016));
#129=SURFACE_STYLE_FILL_AREA(#143);
#130=ORIENTED_EDGE('',*,*,#42,.T.);
#131=CARTESIAN_POINT('',(-4.31408307542741E-032,3.5,4.28626379701574E-016));
#132=DIRECTION('',(6.12323399573677E-017,1.22464679914735E-016,-1.0));
#133=DIRECTION('',(-1.0,0.0,-6.12323399573677E-017));
#134=CARTESIAN_POINT('',(0.0,0.0,0.0));
#135=DIRECTION('',(6.12323399573677E-017,1.22464679914735E-016,-1.0));
#136=DIRECTION('',(-1.23259516440783E-032,1.0,1.22464679914735E-016));
#137=CARTESIAN_POINT('',(-5.32721357629099E-015,-1.0654427152582E-014,87.0));
#138=DIRECTION('',(6.12323399573677E-017,1.22464679914735E-016,-1.0));
#139=DIRECTION('',(-1.23259516440783E-032,1.0,1.22464679914735E-016));
#140=FILL_AREA_STYLE('',(#144));
#141=FILL_AREA_STYLE('',(#145));
#142=FILL_AREA_STYLE('',(#146));
#143=FILL_AREA_STYLE('',(#147));
#144=FILL_AREA_STYLE_COLOUR('',#148);
#145=FILL_AREA_STYLE_COLOUR('',#149);
#146=FILL_AREA_STYLE_COLOUR('',#150);
#147=FILL_AREA_STYLE_COLOUR('',#151);
#148=COLOUR_RGB('',0.501960813999176,0.501960813999176,0.501960813999176);
#149=COLOUR_RGB('',0.501960813999176,0.501960813999176,0.501960813999176);
#150=COLOUR_RGB('',0.501960813999176,0.501960813999176,0.501960813999176);
#151=COLOUR_RGB('',0.501960813999176,0.501960813999176,0.501960813999176);
ENDSEC;
END-ISO-10303-21;
