ISO-10303-21;
HEADER;
FILE_DESCRIPTION((''),'1');
FILE_NAME('T:/00_BIG-HP\X2\FF71FF6FFF8CFF9F\X0\/2022_\X2\30C030A630F330ED30FC30C930C730FC30BF\X0\/02_STEP\X2\FF83FF9EFF70FF80\X0\/LINK\X2\7528FF83FF9EFF70FF80FF8EFF99FF80FF9E\X0\/CK\X2\FF8DFF6FFF84FF9E30FBFF71FF78FF7EFF7BFF98\X0\/10_\X2\4ED54E0A305275284E38FF8AFF9EFF72FF84FF7CFF98FF70FF7DFF9E\X0\/02_\X2\4E38FF8AFF9EFF72FF84FF7CFF6CFF9DFF78\X0\/\X2\5C5E6027590966F4\X0\/ST12W-M6-120.stp','2022-09-05T02:48:14',(''),(''),'Spatial Interop R21 SP3','Kubotek KeyCreator 2011 V10.0.2 (22737)',' ');
FILE_SCHEMA(('automotive_design'));
ENDSEC;
DATA;
#1=MECHANICAL_DESIGN_GEOMETRIC_PRESENTATION_REPRESENTATION(' ',(#10,#11,#12,#13,#14,#15),#6);
#2=PRODUCT_DEFINITION_CONTEXT('',#16,'design');
#3=APPLICATION_PROTOCOL_DEFINITION('INTERNATIONAL STANDARD','automotive_design',1994,#16);
#4=PRODUCT_CATEGORY_RELATIONSHIP('NONE','NONE',#17,#18);
#5=SHAPE_DEFINITION_REPRESENTATION(#19,#20);
#6= (GEOMETRIC_REPRESENTATION_CONTEXT(3)GLOBAL_UNCERTAINTY_ASSIGNED_CONTEXT((#23))GLOBAL_UNIT_ASSIGNED_CONTEXT((#25,#26,#27))REPRESENTATION_CONTEXT('NONE','WORKSPACE'));
#10=STYLED_ITEM('',(#29,#30),#31);
#11=STYLED_ITEM('',(#32,#33),#34);
#12=STYLED_ITEM('',(#35,#36),#37);
#13=STYLED_ITEM('',(#38),#39);
#14=STYLED_ITEM('',(#40),#41);
#15=STYLED_ITEM('',(#42,#43),#44);
#16=APPLICATION_CONTEXT(' ');
#17=PRODUCT_CATEGORY('part','NONE');
#18=PRODUCT_RELATED_PRODUCT_CATEGORY('detail',' ',(#45));
#19=PRODUCT_DEFINITION_SHAPE('NONE','NONE',#46);
#20=ADVANCED_BREP_SHAPE_REPRESENTATION('240[2]',(#37,#47),#6);
#23=UNCERTAINTY_MEASURE_WITH_UNIT(LENGTH_MEASURE(1.0E-006),#25,'','');
#25= (CONVERSION_BASED_UNIT('MILLIMETRE',#50)LENGTH_UNIT()NAMED_UNIT(#53));
#26= (NAMED_UNIT(#55)PLANE_ANGLE_UNIT()SI_UNIT($,.RADIAN.));
#27= (NAMED_UNIT(#55)SOLID_ANGLE_UNIT()SI_UNIT($,.STERADIAN.));
#29=PRESENTATION_STYLE_ASSIGNMENT((#61));
#30=PRESENTATION_STYLE_ASSIGNMENT((#62));
#31=ADVANCED_FACE('240[2]',(#63,#64),#65,.T.);
#32=PRESENTATION_STYLE_ASSIGNMENT((#66));
#33=PRESENTATION_STYLE_ASSIGNMENT((#67));
#34=ADVANCED_FACE('240[2]',(#68),#69,.T.);
#35=PRESENTATION_STYLE_ASSIGNMENT((#70));
#36=PRESENTATION_STYLE_ASSIGNMENT((#71));
#37=MANIFOLD_SOLID_BREP('240[2]',#72);
#38=PRESENTATION_STYLE_ASSIGNMENT((#73));
#39=EDGE_CURVE('240[2]',#74,#74,#75,.T.);
#40=PRESENTATION_STYLE_ASSIGNMENT((#76));
#41=EDGE_CURVE('240[2]',#77,#77,#78,.T.);
#42=PRESENTATION_STYLE_ASSIGNMENT((#79));
#43=PRESENTATION_STYLE_ASSIGNMENT((#80));
#44=ADVANCED_FACE('240[2]',(#81),#82,.T.);
#45=PRODUCT('240[2]','240[2]','PART-240[2]-DESC',(#83));
#46=PRODUCT_DEFINITION('NONE','NONE',#84,#2);
#47=AXIS2_PLACEMENT_3D('',#85,#86,#87);
#50=LENGTH_MEASURE_WITH_UNIT(LENGTH_MEASURE(1.0),#88);
#53=DIMENSIONAL_EXPONENTS(1.0,0.0,0.0,0.0,0.0,0.0,0.0);
#55=DIMENSIONAL_EXPONENTS(0.0,0.0,0.0,0.0,0.0,0.0,0.0);
#61=SURFACE_STYLE_USAGE(.BOTH.,#89);
#62=CURVE_STYLE('',#90,POSITIVE_LENGTH_MEASURE(1000.0),#91);
#63=FACE_BOUND('',#92,.T.);
#64=FACE_BOUND('',#93,.T.);
#65=CYLINDRICAL_SURFACE('',#94,6.0);
#66=SURFACE_STYLE_USAGE(.BOTH.,#95);
#67=CURVE_STYLE('',#96,POSITIVE_LENGTH_MEASURE(1000.0),#97);
#68=FACE_OUTER_BOUND('',#98,.T.);
#69=PLANE('',#99);
#70=SURFACE_STYLE_USAGE(.BOTH.,#100);
#71=CURVE_STYLE('',#101,POSITIVE_LENGTH_MEASURE(1000.0),#102);
#72=CLOSED_SHELL('',(#44,#31,#34));
#73=CURVE_STYLE('',#103,POSITIVE_LENGTH_MEASURE(1000.0),#104);
#74=VERTEX_POINT('',#105);
#75=CIRCLE('',#106,6.0);
#76=CURVE_STYLE('',#107,POSITIVE_LENGTH_MEASURE(1000.0),#108);
#77=VERTEX_POINT('',#109);
#78=CIRCLE('',#110,6.0);
#79=SURFACE_STYLE_USAGE(.BOTH.,#111);
#80=CURVE_STYLE('',#112,POSITIVE_LENGTH_MEASURE(1000.0),#113);
#81=FACE_OUTER_BOUND('',#114,.T.);
#82=PLANE('',#115);
#83=PRODUCT_CONTEXT('',#16,'mechanical');
#84=PRODUCT_DEFINITION_FORMATION_WITH_SPECIFIED_SOURCE(' ','NONE',#45,.NOT_KNOWN.);
#85=CARTESIAN_POINT('',(0.0,0.0,0.0));
#86=DIRECTION('',(0.0,0.0,1.0));
#87=DIRECTION('',(1.0,0.0,0.0));
#88= (NAMED_UNIT(#53)LENGTH_UNIT()SI_UNIT(.MILLI.,.METRE.));
#89=SURFACE_SIDE_STYLE('',(#117));
#90=DRAUGHTING_PRE_DEFINED_CURVE_FONT('continuous');
#91=COLOUR_RGB('',0.501960813999176,0.501960813999176,0.501960813999176);
#92=EDGE_LOOP('',(#118));
#93=EDGE_LOOP('',(#119));
#94=AXIS2_PLACEMENT_3D('',#120,#121,#122);
#95=SURFACE_SIDE_STYLE('',(#123));
#96=DRAUGHTING_PRE_DEFINED_CURVE_FONT('continuous');
#97=COLOUR_RGB('',0.501960813999176,0.501960813999176,0.501960813999176);
#98=EDGE_LOOP('',(#124));
#99=AXIS2_PLACEMENT_3D('',#125,#126,#127);
#100=SURFACE_SIDE_STYLE('',(#128));
#101=DRAUGHTING_PRE_DEFINED_CURVE_FONT('continuous');
#102=COLOUR_RGB('',0.501960813999176,0.501960813999176,0.501960813999176);
#103=DRAUGHTING_PRE_DEFINED_CURVE_FONT('continuous');
#104=COLOUR_RGB('',0.501960813999176,0.501960813999176,0.501960813999176);
#105=CARTESIAN_POINT('',(-8.38883057415937E-015,5.99999999999998,137.0));
#106=AXIS2_PLACEMENT_3D('',#129,#130,#131);
#107=DRAUGHTING_PRE_DEFINED_CURVE_FONT('continuous');
#108=COLOUR_RGB('',0.501960813999176,0.501960813999176,0.501960813999176);
#109=CARTESIAN_POINT('',(-7.39557098644699E-032,6.0,7.34788079488412E-016));
#110=AXIS2_PLACEMENT_3D('',#132,#133,#134);
#111=SURFACE_SIDE_STYLE('',(#135));
#112=DRAUGHTING_PRE_DEFINED_CURVE_FONT('continuous');
#113=COLOUR_RGB('',0.501960813999176,0.501960813999176,0.501960813999176);
#114=EDGE_LOOP('',(#136));
#115=AXIS2_PLACEMENT_3D('',#137,#138,#139);
#117=SURFACE_STYLE_FILL_AREA(#140);
#118=ORIENTED_EDGE('',*,*,#41,.F.);
#119=ORIENTED_EDGE('',*,*,#39,.T.);
#120=CARTESIAN_POINT('',(-4.19441528707968E-015,-8.38883057415937E-015,68.5));
#121=DIRECTION('',(6.12323399573677E-017,1.22464679914735E-016,-1.0));
#122=DIRECTION('',(-1.23259516440783E-032,1.0,1.22464679914735E-016));
#123=SURFACE_STYLE_FILL_AREA(#141);
#124=ORIENTED_EDGE('',*,*,#41,.T.);
#125=CARTESIAN_POINT('',(-3.69778549322349E-032,3.0,3.67394039744206E-016));
#126=DIRECTION('',(6.12323399573677E-017,1.22464679914735E-016,-1.0));
#127=DIRECTION('',(-1.0,0.0,-6.12323399573677E-017));
#128=SURFACE_STYLE_FILL_AREA(#142);
#129=CARTESIAN_POINT('',(-8.38883057415937E-015,-1.67776611483187E-014,137.0));
#130=DIRECTION('',(6.12323399573677E-017,1.22464679914735E-016,-1.0));
#131=DIRECTION('',(-1.23259516440783E-032,1.0,1.22464679914735E-016));
#132=CARTESIAN_POINT('',(0.0,0.0,0.0));
#133=DIRECTION('',(6.12323399573677E-017,1.22464679914735E-016,-1.0));
#134=DIRECTION('',(-1.23259516440783E-032,1.0,1.22464679914735E-016));
#135=SURFACE_STYLE_FILL_AREA(#143);
#136=ORIENTED_EDGE('',*,*,#39,.F.);
#137=CARTESIAN_POINT('',(-8.38883057415937E-015,2.99999999999998,137.0));
#138=DIRECTION('',(7.49879891330927E-033,-1.22464679914735E-016,1.0));
#139=DIRECTION('',(1.0,6.12323399573677E-017,0.0));
#140=FILL_AREA_STYLE('',(#144));
#141=FILL_AREA_STYLE('',(#145));
#142=FILL_AREA_STYLE('',(#146));
#143=FILL_AREA_STYLE('',(#147));
#144=FILL_AREA_STYLE_COLOUR('',#148);
#145=FILL_AREA_STYLE_COLOUR('',#149);
#146=FILL_AREA_STYLE_COLOUR('',#150);
#147=FILL_AREA_STYLE_COLOUR('',#151);
#148=COLOUR_RGB('',0.501960813999176,0.501960813999176,0.501960813999176);
#149=COLOUR_RGB('',0.501960813999176,0.501960813999176,0.501960813999176);
#150=COLOUR_RGB('',0.501960813999176,0.501960813999176,0.501960813999176);
#151=COLOUR_RGB('',0.501960813999176,0.501960813999176,0.501960813999176);
ENDSEC;
END-ISO-10303-21;
