ISO-10303-21;
HEADER;
FILE_DESCRIPTION((''),'1');
FILE_NAME('T:/00_BIG-HP\X2\FF71FF6FFF8CFF9F\X0\/2022_\X2\30C030A630F330ED30FC30C930C730FC30BF\X0\/02_STEP\X2\FF83FF9EFF70FF80\X0\/LINK\X2\7528FF83FF9EFF70FF80FF8EFF99FF80FF9E\X0\/CK\X2\FF8DFF6FFF84FF9E30FBFF71FF78FF7EFF7BFF98\X0\/10_\X2\4ED54E0A305275284E38FF8AFF9EFF72FF84FF7CFF98FF70FF7DFF9E\X0\/02_\X2\4E38FF8AFF9EFF72FF84FF7CFF6CFF9DFF78\X0\/\X2\5C5E6027590966F4\X0\/ST12W-M10-135.stp','2022-09-05T02:57:38',(''),(''),'Spatial Interop R21 SP3','Kubotek KeyCreator 2011 V10.0.2 (22737)',' ');
FILE_SCHEMA(('automotive_design'));
ENDSEC;
DATA;
#1=MECHANICAL_DESIGN_GEOMETRIC_PRESENTATION_REPRESENTATION(' ',(#10,#11,#12,#13,#14,#15,#16,#17,#18,#19),#6);
#2=PRODUCT_DEFINITION_CONTEXT('',#20,'design');
#3=APPLICATION_PROTOCOL_DEFINITION('INTERNATIONAL STANDARD','automotive_design',1994,#20);
#4=PRODUCT_CATEGORY_RELATIONSHIP('NONE','NONE',#21,#22);
#5=SHAPE_DEFINITION_REPRESENTATION(#23,#24);
#6= (GEOMETRIC_REPRESENTATION_CONTEXT(3)GLOBAL_UNCERTAINTY_ASSIGNED_CONTEXT((#27))GLOBAL_UNIT_ASSIGNED_CONTEXT((#29,#30,#31))REPRESENTATION_CONTEXT('NONE','WORKSPACE'));
#10=STYLED_ITEM('',(#33),#34);
#11=STYLED_ITEM('',(#35,#36),#37);
#12=STYLED_ITEM('',(#38,#39),#40);
#13=STYLED_ITEM('',(#41,#42),#43);
#14=STYLED_ITEM('',(#44),#45);
#15=STYLED_ITEM('',(#46),#47);
#16=STYLED_ITEM('',(#48,#49),#50);
#17=STYLED_ITEM('',(#51,#52),#53);
#18=STYLED_ITEM('',(#54),#55);
#19=STYLED_ITEM('',(#56,#57),#58);
#20=APPLICATION_CONTEXT(' ');
#21=PRODUCT_CATEGORY('part','NONE');
#22=PRODUCT_RELATED_PRODUCT_CATEGORY('detail',' ',(#59));
#23=PRODUCT_DEFINITION_SHAPE('NONE','NONE',#60);
#24=ADVANCED_BREP_SHAPE_REPRESENTATION('240[2]',(#53,#61),#6);
#27=UNCERTAINTY_MEASURE_WITH_UNIT(LENGTH_MEASURE(1.0E-006),#29,'','');
#29= (CONVERSION_BASED_UNIT('MILLIMETRE',#64)LENGTH_UNIT()NAMED_UNIT(#67));
#30= (NAMED_UNIT(#69)PLANE_ANGLE_UNIT()SI_UNIT($,.RADIAN.));
#31= (NAMED_UNIT(#69)SOLID_ANGLE_UNIT()SI_UNIT($,.STERADIAN.));
#33=PRESENTATION_STYLE_ASSIGNMENT((#75));
#34=EDGE_CURVE('240[2]',#76,#76,#77,.T.);
#35=PRESENTATION_STYLE_ASSIGNMENT((#78));
#36=PRESENTATION_STYLE_ASSIGNMENT((#79));
#37=ADVANCED_FACE('240[2]',(#80,#81),#82,.T.);
#38=PRESENTATION_STYLE_ASSIGNMENT((#83));
#39=PRESENTATION_STYLE_ASSIGNMENT((#84));
#40=ADVANCED_FACE('240[2]',(#85),#86,.T.);
#41=PRESENTATION_STYLE_ASSIGNMENT((#87));
#42=PRESENTATION_STYLE_ASSIGNMENT((#88));
#43=ADVANCED_FACE('240[2]',(#89,#90),#91,.T.);
#44=PRESENTATION_STYLE_ASSIGNMENT((#92));
#45=EDGE_CURVE('240[2]',#93,#93,#94,.T.);
#46=PRESENTATION_STYLE_ASSIGNMENT((#95));
#47=EDGE_CURVE('240[2]',#96,#96,#97,.T.);
#48=PRESENTATION_STYLE_ASSIGNMENT((#98));
#49=PRESENTATION_STYLE_ASSIGNMENT((#99));
#50=ADVANCED_FACE('240[2]',(#100,#101),#102,.T.);
#51=PRESENTATION_STYLE_ASSIGNMENT((#103));
#52=PRESENTATION_STYLE_ASSIGNMENT((#104));
#53=MANIFOLD_SOLID_BREP('240[2]',#105);
#54=PRESENTATION_STYLE_ASSIGNMENT((#106));
#55=EDGE_CURVE('240[2]',#107,#107,#108,.T.);
#56=PRESENTATION_STYLE_ASSIGNMENT((#109));
#57=PRESENTATION_STYLE_ASSIGNMENT((#110));
#58=ADVANCED_FACE('240[2]',(#111),#112,.T.);
#59=PRODUCT('240[2]','240[2]','PART-240[2]-DESC',(#113));
#60=PRODUCT_DEFINITION('NONE','NONE',#114,#2);
#61=AXIS2_PLACEMENT_3D('',#115,#116,#117);
#64=LENGTH_MEASURE_WITH_UNIT(LENGTH_MEASURE(1.0),#118);
#67=DIMENSIONAL_EXPONENTS(1.0,0.0,0.0,0.0,0.0,0.0,0.0);
#69=DIMENSIONAL_EXPONENTS(0.0,0.0,0.0,0.0,0.0,0.0,0.0);
#75=CURVE_STYLE('',#119,POSITIVE_LENGTH_MEASURE(1000.0),#120);
#76=VERTEX_POINT('',#121);
#77=CIRCLE('',#122,8.0);
#78=SURFACE_STYLE_USAGE(.BOTH.,#123);
#79=CURVE_STYLE('',#124,POSITIVE_LENGTH_MEASURE(1000.0),#125);
#80=FACE_BOUND('',#126,.T.);
#81=FACE_BOUND('',#127,.T.);
#82=CYLINDRICAL_SURFACE('',#128,8.0);
#83=SURFACE_STYLE_USAGE(.BOTH.,#129);
#84=CURVE_STYLE('',#130,POSITIVE_LENGTH_MEASURE(1000.0),#131);
#85=FACE_OUTER_BOUND('',#132,.T.);
#86=PLANE('',#133);
#87=SURFACE_STYLE_USAGE(.BOTH.,#134);
#88=CURVE_STYLE('',#135,POSITIVE_LENGTH_MEASURE(1000.0),#136);
#89=FACE_BOUND('',#137,.T.);
#90=FACE_BOUND('',#138,.T.);
#91=CYLINDRICAL_SURFACE('',#139,6.0);
#92=CURVE_STYLE('',#140,POSITIVE_LENGTH_MEASURE(1000.0),#141);
#93=VERTEX_POINT('',#142);
#94=CIRCLE('',#143,6.0);
#95=CURVE_STYLE('',#144,POSITIVE_LENGTH_MEASURE(1000.0),#145);
#96=VERTEX_POINT('',#146);
#97=CIRCLE('',#147,6.0);
#98=SURFACE_STYLE_USAGE(.BOTH.,#148);
#99=CURVE_STYLE('',#149,POSITIVE_LENGTH_MEASURE(1000.0),#150);
#100=FACE_OUTER_BOUND('',#151,.T.);
#101=FACE_BOUND('',#152,.T.);
#102=PLANE('',#153);
#103=SURFACE_STYLE_USAGE(.BOTH.,#154);
#104=CURVE_STYLE('',#155,POSITIVE_LENGTH_MEASURE(1000.0),#156);
#105=CLOSED_SHELL('',(#40,#43,#50,#37,#58));
#106=CURVE_STYLE('',#157,POSITIVE_LENGTH_MEASURE(1000.0),#158);
#107=VERTEX_POINT('',#159);
#108=CIRCLE('',#160,8.0);
#109=SURFACE_STYLE_USAGE(.BOTH.,#161);
#110=CURVE_STYLE('',#162,POSITIVE_LENGTH_MEASURE(1000.0),#163);
#111=FACE_OUTER_BOUND('',#164,.T.);
#112=PLANE('',#165);
#113=PRODUCT_CONTEXT('',#20,'mechanical');
#114=PRODUCT_DEFINITION_FORMATION_WITH_SPECIFIED_SOURCE(' ','NONE',#59,.NOT_KNOWN.);
#115=CARTESIAN_POINT('',(0.0,0.0,0.0));
#116=DIRECTION('',(0.0,0.0,1.0));
#117=DIRECTION('',(1.0,0.0,0.0));
#118= (NAMED_UNIT(#67)LENGTH_UNIT()SI_UNIT(.MILLI.,.METRE.));
#119=DRAUGHTING_PRE_DEFINED_CURVE_FONT('continuous');
#120=COLOUR_RGB('',0.501960813999176,0.501960813999176,0.501960813999176);
#121=CARTESIAN_POINT('',(-4.28626379701574E-016,8.0,7.0));
#122=AXIS2_PLACEMENT_3D('',#167,#168,#169);
#123=SURFACE_SIDE_STYLE('',(#170));
#124=DRAUGHTING_PRE_DEFINED_CURVE_FONT('continuous');
#125=COLOUR_RGB('',0.501960813999176,0.501960813999176,0.501960813999176);
#126=EDGE_LOOP('',(#171));
#127=EDGE_LOOP('',(#172));
#128=AXIS2_PLACEMENT_3D('',#173,#174,#175);
#129=SURFACE_SIDE_STYLE('',(#176));
#130=DRAUGHTING_PRE_DEFINED_CURVE_FONT('continuous');
#131=COLOUR_RGB('',0.501960813999176,0.501960813999176,0.501960813999176);
#132=EDGE_LOOP('',(#177));
#133=AXIS2_PLACEMENT_3D('',#178,#179,#180);
#134=SURFACE_SIDE_STYLE('',(#181));
#135=DRAUGHTING_PRE_DEFINED_CURVE_FONT('continuous');
#136=COLOUR_RGB('',0.501960813999176,0.501960813999176,0.501960813999176);
#137=EDGE_LOOP('',(#182));
#138=EDGE_LOOP('',(#183));
#139=AXIS2_PLACEMENT_3D('',#184,#185,#186);
#140=DRAUGHTING_PRE_DEFINED_CURVE_FONT('continuous');
#141=COLOUR_RGB('',0.501960813999176,0.501960813999176,0.501960813999176);
#142=CARTESIAN_POINT('',(-8.69499227394621E-015,5.99999999999998,142.0));
#143=AXIS2_PLACEMENT_3D('',#187,#188,#189);
#144=DRAUGHTING_PRE_DEFINED_CURVE_FONT('continuous');
#145=COLOUR_RGB('',0.501960813999176,0.501960813999176,0.501960813999176);
#146=CARTESIAN_POINT('',(-4.28626379701574E-016,6.0,7.0));
#147=AXIS2_PLACEMENT_3D('',#190,#191,#192);
#148=SURFACE_SIDE_STYLE('',(#193));
#149=DRAUGHTING_PRE_DEFINED_CURVE_FONT('continuous');
#150=COLOUR_RGB('',0.501960813999176,0.501960813999176,0.501960813999176);
#151=EDGE_LOOP('',(#194));
#152=EDGE_LOOP('',(#195));
#153=AXIS2_PLACEMENT_3D('',#196,#197,#198);
#154=SURFACE_SIDE_STYLE('',(#199));
#155=DRAUGHTING_PRE_DEFINED_CURVE_FONT('continuous');
#156=COLOUR_RGB('',0.501960813999176,0.501960813999176,0.501960813999176);
#157=DRAUGHTING_PRE_DEFINED_CURVE_FONT('continuous');
#158=COLOUR_RGB('',0.501960813999176,0.501960813999176,0.501960813999176);
#159=CARTESIAN_POINT('',(-9.86076131526265E-032,8.0,9.79717439317882E-016));
#160=AXIS2_PLACEMENT_3D('',#200,#201,#202);
#161=SURFACE_SIDE_STYLE('',(#203));
#162=DRAUGHTING_PRE_DEFINED_CURVE_FONT('continuous');
#163=COLOUR_RGB('',0.501960813999176,0.501960813999176,0.501960813999176);
#164=EDGE_LOOP('',(#204));
#165=AXIS2_PLACEMENT_3D('',#205,#206,#207);
#167=CARTESIAN_POINT('',(-4.28626379701574E-016,-8.57252759403147E-016,7.0));
#168=DIRECTION('',(6.12323399573677E-017,1.22464679914735E-016,-1.0));
#169=DIRECTION('',(-1.23259516440783E-032,1.0,1.22464679914735E-016));
#170=SURFACE_STYLE_FILL_AREA(#208);
#171=ORIENTED_EDGE('',*,*,#55,.F.);
#172=ORIENTED_EDGE('',*,*,#34,.T.);
#173=CARTESIAN_POINT('',(-2.14313189850787E-016,-4.28626379701574E-016,3.5));
#174=DIRECTION('',(6.12323399573677E-017,1.22464679914735E-016,-1.0));
#175=DIRECTION('',(-1.23259516440783E-032,1.0,1.22464679914735E-016));
#176=SURFACE_STYLE_FILL_AREA(#209);
#177=ORIENTED_EDGE('',*,*,#45,.F.);
#178=CARTESIAN_POINT('',(-8.69499227394621E-015,2.99999999999998,142.0));
#179=DIRECTION('',(7.49879891330927E-033,-1.22464679914735E-016,1.0));
#180=DIRECTION('',(1.0,6.12323399573677E-017,0.0));
#181=SURFACE_STYLE_FILL_AREA(#210);
#182=ORIENTED_EDGE('',*,*,#47,.F.);
#183=ORIENTED_EDGE('',*,*,#45,.T.);
#184=CARTESIAN_POINT('',(-4.56180932682389E-015,-9.12361865364778E-015,74.5));
#185=DIRECTION('',(6.12323399573677E-017,1.22464679914735E-016,-1.0));
#186=DIRECTION('',(-1.23259516440783E-032,1.0,1.22464679914735E-016));
#187=CARTESIAN_POINT('',(-8.69499227394621E-015,-1.73899845478924E-014,142.0));
#188=DIRECTION('',(6.12323399573677E-017,1.22464679914735E-016,-1.0));
#189=DIRECTION('',(-1.23259516440783E-032,1.0,1.22464679914735E-016));
#190=CARTESIAN_POINT('',(-4.28626379701574E-016,-8.57252759403147E-016,7.0));
#191=DIRECTION('',(6.12323399573677E-017,1.22464679914735E-016,-1.0));
#192=DIRECTION('',(-1.23259516440783E-032,1.0,1.22464679914735E-016));
#193=SURFACE_STYLE_FILL_AREA(#211);
#194=ORIENTED_EDGE('',*,*,#34,.F.);
#195=ORIENTED_EDGE('',*,*,#47,.T.);
#196=CARTESIAN_POINT('',(-4.28626379701574E-016,7.0,7.0));
#197=DIRECTION('',(7.49879891330927E-033,-1.22464679914735E-016,1.0));
#198=DIRECTION('',(1.0,6.12323399573677E-017,0.0));
#199=SURFACE_STYLE_FILL_AREA(#212);
#200=CARTESIAN_POINT('',(0.0,0.0,0.0));
#201=DIRECTION('',(6.12323399573677E-017,1.22464679914735E-016,-1.0));
#202=DIRECTION('',(-1.23259516440783E-032,1.0,1.22464679914735E-016));
#203=SURFACE_STYLE_FILL_AREA(#213);
#204=ORIENTED_EDGE('',*,*,#55,.T.);
#205=CARTESIAN_POINT('',(-4.93038065763132E-032,4.0,4.89858719658941E-016));
#206=DIRECTION('',(6.12323399573677E-017,1.22464679914735E-016,-1.0));
#207=DIRECTION('',(-1.0,0.0,-6.12323399573677E-017));
#208=FILL_AREA_STYLE('',(#214));
#209=FILL_AREA_STYLE('',(#215));
#210=FILL_AREA_STYLE('',(#216));
#211=FILL_AREA_STYLE('',(#217));
#212=FILL_AREA_STYLE('',(#218));
#213=FILL_AREA_STYLE('',(#219));
#214=FILL_AREA_STYLE_COLOUR('',#220);
#215=FILL_AREA_STYLE_COLOUR('',#221);
#216=FILL_AREA_STYLE_COLOUR('',#222);
#217=FILL_AREA_STYLE_COLOUR('',#223);
#218=FILL_AREA_STYLE_COLOUR('',#224);
#219=FILL_AREA_STYLE_COLOUR('',#225);
#220=COLOUR_RGB('',0.501960813999176,0.501960813999176,0.501960813999176);
#221=COLOUR_RGB('',0.501960813999176,0.501960813999176,0.501960813999176);
#222=COLOUR_RGB('',0.501960813999176,0.501960813999176,0.501960813999176);
#223=COLOUR_RGB('',0.501960813999176,0.501960813999176,0.501960813999176);
#224=COLOUR_RGB('',0.501960813999176,0.501960813999176,0.501960813999176);
#225=COLOUR_RGB('',0.501960813999176,0.501960813999176,0.501960813999176);
ENDSEC;
END-ISO-10303-21;
