ISO-10303-21;
HEADER;
FILE_DESCRIPTION((''),'1');
FILE_NAME('T:/00_BIG-HP\X2\FF71FF6FFF8CFF9F\X0\/2022_\X2\30C030A630F330ED30FC30C930C730FC30BF\X0\/02_STEP\X2\FF83FF9EFF70FF80\X0\/LINK\X2\7528FF83FF9EFF70FF80FF8EFF99FF80FF9E\X0\/CK\X2\FF8DFF6FFF84FF9E30FBFF71FF78FF7EFF7BFF98\X0\/10_\X2\4ED54E0A305275284E38FF8AFF9EFF72FF84FF7CFF98FF70FF7DFF9E\X0\/02_\X2\4E38FF8AFF9EFF72FF84FF7CFF6CFF9DFF78\X0\/\X2\5C5E6027590966F4\X0\/ST12W-M10-105.stp','2022-09-05T02:57:00',(''),(''),'Spatial Interop R21 SP3','Kubotek KeyCreator 2011 V10.0.2 (22737)',' ');
FILE_SCHEMA(('automotive_design'));
ENDSEC;
DATA;
#1=MECHANICAL_DESIGN_GEOMETRIC_PRESENTATION_REPRESENTATION(' ',(#10,#11,#12,#13,#14,#15,#16,#17,#18,#19),#6);
#2=PRODUCT_DEFINITION_CONTEXT('',#20,'design');
#3=APPLICATION_PROTOCOL_DEFINITION('INTERNATIONAL STANDARD','automotive_design',1994,#20);
#4=PRODUCT_CATEGORY_RELATIONSHIP('NONE','NONE',#21,#22);
#5=SHAPE_DEFINITION_REPRESENTATION(#23,#24);
#6= (GEOMETRIC_REPRESENTATION_CONTEXT(3)GLOBAL_UNCERTAINTY_ASSIGNED_CONTEXT((#27))GLOBAL_UNIT_ASSIGNED_CONTEXT((#29,#30,#31))REPRESENTATION_CONTEXT('NONE','WORKSPACE'));
#10=STYLED_ITEM('',(#33),#34);
#11=STYLED_ITEM('',(#35,#36),#37);
#12=STYLED_ITEM('',(#38,#39),#40);
#13=STYLED_ITEM('',(#41),#42);
#14=STYLED_ITEM('',(#43,#44),#45);
#15=STYLED_ITEM('',(#46),#47);
#16=STYLED_ITEM('',(#48),#49);
#17=STYLED_ITEM('',(#50,#51),#52);
#18=STYLED_ITEM('',(#53,#54),#55);
#19=STYLED_ITEM('',(#56,#57),#58);
#20=APPLICATION_CONTEXT(' ');
#21=PRODUCT_CATEGORY('part','NONE');
#22=PRODUCT_RELATED_PRODUCT_CATEGORY('detail',' ',(#59));
#23=PRODUCT_DEFINITION_SHAPE('NONE','NONE',#60);
#24=ADVANCED_BREP_SHAPE_REPRESENTATION('240[2]',(#45,#61),#6);
#27=UNCERTAINTY_MEASURE_WITH_UNIT(LENGTH_MEASURE(1.0E-006),#29,'','');
#29= (CONVERSION_BASED_UNIT('MILLIMETRE',#64)LENGTH_UNIT()NAMED_UNIT(#67));
#30= (NAMED_UNIT(#69)PLANE_ANGLE_UNIT()SI_UNIT($,.RADIAN.));
#31= (NAMED_UNIT(#69)SOLID_ANGLE_UNIT()SI_UNIT($,.STERADIAN.));
#33=PRESENTATION_STYLE_ASSIGNMENT((#75));
#34=EDGE_CURVE('240[2]',#76,#76,#77,.T.);
#35=PRESENTATION_STYLE_ASSIGNMENT((#78));
#36=PRESENTATION_STYLE_ASSIGNMENT((#79));
#37=ADVANCED_FACE('240[2]',(#80,#81),#82,.T.);
#38=PRESENTATION_STYLE_ASSIGNMENT((#83));
#39=PRESENTATION_STYLE_ASSIGNMENT((#84));
#40=ADVANCED_FACE('240[2]',(#85),#86,.T.);
#41=PRESENTATION_STYLE_ASSIGNMENT((#87));
#42=EDGE_CURVE('240[2]',#88,#88,#89,.T.);
#43=PRESENTATION_STYLE_ASSIGNMENT((#90));
#44=PRESENTATION_STYLE_ASSIGNMENT((#91));
#45=MANIFOLD_SOLID_BREP('240[2]',#92);
#46=PRESENTATION_STYLE_ASSIGNMENT((#93));
#47=EDGE_CURVE('240[2]',#94,#94,#95,.T.);
#48=PRESENTATION_STYLE_ASSIGNMENT((#96));
#49=EDGE_CURVE('240[2]',#97,#97,#98,.T.);
#50=PRESENTATION_STYLE_ASSIGNMENT((#99));
#51=PRESENTATION_STYLE_ASSIGNMENT((#100));
#52=ADVANCED_FACE('240[2]',(#101,#102),#103,.T.);
#53=PRESENTATION_STYLE_ASSIGNMENT((#104));
#54=PRESENTATION_STYLE_ASSIGNMENT((#105));
#55=ADVANCED_FACE('240[2]',(#106),#107,.T.);
#56=PRESENTATION_STYLE_ASSIGNMENT((#108));
#57=PRESENTATION_STYLE_ASSIGNMENT((#109));
#58=ADVANCED_FACE('240[2]',(#110,#111),#112,.T.);
#59=PRODUCT('240[2]','240[2]','PART-240[2]-DESC',(#113));
#60=PRODUCT_DEFINITION('NONE','NONE',#114,#2);
#61=AXIS2_PLACEMENT_3D('',#115,#116,#117);
#64=LENGTH_MEASURE_WITH_UNIT(LENGTH_MEASURE(1.0),#118);
#67=DIMENSIONAL_EXPONENTS(1.0,0.0,0.0,0.0,0.0,0.0,0.0);
#69=DIMENSIONAL_EXPONENTS(0.0,0.0,0.0,0.0,0.0,0.0,0.0);
#75=CURVE_STYLE('',#119,POSITIVE_LENGTH_MEASURE(1000.0),#120);
#76=VERTEX_POINT('',#121);
#77=CIRCLE('',#122,6.0);
#78=SURFACE_STYLE_USAGE(.BOTH.,#123);
#79=CURVE_STYLE('',#124,POSITIVE_LENGTH_MEASURE(1000.0),#125);
#80=FACE_OUTER_BOUND('',#126,.T.);
#81=FACE_BOUND('',#127,.T.);
#82=PLANE('',#128);
#83=SURFACE_STYLE_USAGE(.BOTH.,#129);
#84=CURVE_STYLE('',#130,POSITIVE_LENGTH_MEASURE(1000.0),#131);
#85=FACE_OUTER_BOUND('',#132,.T.);
#86=PLANE('',#133);
#87=CURVE_STYLE('',#134,POSITIVE_LENGTH_MEASURE(1000.0),#135);
#88=VERTEX_POINT('',#136);
#89=CIRCLE('',#137,6.0);
#90=SURFACE_STYLE_USAGE(.BOTH.,#138);
#91=CURVE_STYLE('',#139,POSITIVE_LENGTH_MEASURE(1000.0),#140);
#92=CLOSED_SHELL('',(#55,#52,#37,#58,#40));
#93=CURVE_STYLE('',#141,POSITIVE_LENGTH_MEASURE(1000.0),#142);
#94=VERTEX_POINT('',#143);
#95=CIRCLE('',#144,8.0);
#96=CURVE_STYLE('',#145,POSITIVE_LENGTH_MEASURE(1000.0),#146);
#97=VERTEX_POINT('',#147);
#98=CIRCLE('',#148,8.0);
#99=SURFACE_STYLE_USAGE(.BOTH.,#149);
#100=CURVE_STYLE('',#150,POSITIVE_LENGTH_MEASURE(1000.0),#151);
#101=FACE_BOUND('',#152,.T.);
#102=FACE_BOUND('',#153,.T.);
#103=CYLINDRICAL_SURFACE('',#154,6.0);
#104=SURFACE_STYLE_USAGE(.BOTH.,#155);
#105=CURVE_STYLE('',#156,POSITIVE_LENGTH_MEASURE(1000.0),#157);
#106=FACE_OUTER_BOUND('',#158,.T.);
#107=PLANE('',#159);
#108=SURFACE_STYLE_USAGE(.BOTH.,#160);
#109=CURVE_STYLE('',#161,POSITIVE_LENGTH_MEASURE(1000.0),#162);
#110=FACE_BOUND('',#163,.T.);
#111=FACE_BOUND('',#164,.T.);
#112=CYLINDRICAL_SURFACE('',#165,8.0);
#113=PRODUCT_CONTEXT('',#20,'mechanical');
#114=PRODUCT_DEFINITION_FORMATION_WITH_SPECIFIED_SOURCE(' ','NONE',#59,.NOT_KNOWN.);
#115=CARTESIAN_POINT('',(0.0,0.0,0.0));
#116=DIRECTION('',(0.0,0.0,1.0));
#117=DIRECTION('',(1.0,0.0,0.0));
#118= (NAMED_UNIT(#67)LENGTH_UNIT()SI_UNIT(.MILLI.,.METRE.));
#119=DRAUGHTING_PRE_DEFINED_CURVE_FONT('continuous');
#120=COLOUR_RGB('',0.501960813999176,0.501960813999176,0.501960813999176);
#121=CARTESIAN_POINT('',(-4.28626379701574E-016,6.0,7.0));
#122=AXIS2_PLACEMENT_3D('',#167,#168,#169);
#123=SURFACE_SIDE_STYLE('',(#170));
#124=DRAUGHTING_PRE_DEFINED_CURVE_FONT('continuous');
#125=COLOUR_RGB('',0.501960813999176,0.501960813999176,0.501960813999176);
#126=EDGE_LOOP('',(#171));
#127=EDGE_LOOP('',(#172));
#128=AXIS2_PLACEMENT_3D('',#173,#174,#175);
#129=SURFACE_SIDE_STYLE('',(#176));
#130=DRAUGHTING_PRE_DEFINED_CURVE_FONT('continuous');
#131=COLOUR_RGB('',0.501960813999176,0.501960813999176,0.501960813999176);
#132=EDGE_LOOP('',(#177));
#133=AXIS2_PLACEMENT_3D('',#178,#179,#180);
#134=DRAUGHTING_PRE_DEFINED_CURVE_FONT('continuous');
#135=COLOUR_RGB('',0.501960813999176,0.501960813999176,0.501960813999176);
#136=CARTESIAN_POINT('',(-6.85802207522518E-015,5.99999999999999,112.0));
#137=AXIS2_PLACEMENT_3D('',#181,#182,#183);
#138=SURFACE_SIDE_STYLE('',(#184));
#139=DRAUGHTING_PRE_DEFINED_CURVE_FONT('continuous');
#140=COLOUR_RGB('',0.501960813999176,0.501960813999176,0.501960813999176);
#141=DRAUGHTING_PRE_DEFINED_CURVE_FONT('continuous');
#142=COLOUR_RGB('',0.501960813999176,0.501960813999176,0.501960813999176);
#143=CARTESIAN_POINT('',(-4.28626379701574E-016,8.0,7.0));
#144=AXIS2_PLACEMENT_3D('',#185,#186,#187);
#145=DRAUGHTING_PRE_DEFINED_CURVE_FONT('continuous');
#146=COLOUR_RGB('',0.501960813999176,0.501960813999176,0.501960813999176);
#147=CARTESIAN_POINT('',(-9.86076131526265E-032,8.0,9.79717439317882E-016));
#148=AXIS2_PLACEMENT_3D('',#188,#189,#190);
#149=SURFACE_SIDE_STYLE('',(#191));
#150=DRAUGHTING_PRE_DEFINED_CURVE_FONT('continuous');
#151=COLOUR_RGB('',0.501960813999176,0.501960813999176,0.501960813999176);
#152=EDGE_LOOP('',(#192));
#153=EDGE_LOOP('',(#193));
#154=AXIS2_PLACEMENT_3D('',#194,#195,#196);
#155=SURFACE_SIDE_STYLE('',(#197));
#156=DRAUGHTING_PRE_DEFINED_CURVE_FONT('continuous');
#157=COLOUR_RGB('',0.501960813999176,0.501960813999176,0.501960813999176);
#158=EDGE_LOOP('',(#198));
#159=AXIS2_PLACEMENT_3D('',#199,#200,#201);
#160=SURFACE_SIDE_STYLE('',(#202));
#161=DRAUGHTING_PRE_DEFINED_CURVE_FONT('continuous');
#162=COLOUR_RGB('',0.501960813999176,0.501960813999176,0.501960813999176);
#163=EDGE_LOOP('',(#203));
#164=EDGE_LOOP('',(#204));
#165=AXIS2_PLACEMENT_3D('',#205,#206,#207);
#167=CARTESIAN_POINT('',(-4.28626379701574E-016,-8.57252759403147E-016,7.0));
#168=DIRECTION('',(6.12323399573677E-017,1.22464679914735E-016,-1.0));
#169=DIRECTION('',(-1.23259516440783E-032,1.0,1.22464679914735E-016));
#170=SURFACE_STYLE_FILL_AREA(#208);
#171=ORIENTED_EDGE('',*,*,#47,.F.);
#172=ORIENTED_EDGE('',*,*,#34,.T.);
#173=CARTESIAN_POINT('',(-4.28626379701574E-016,7.0,7.0));
#174=DIRECTION('',(7.49879891330927E-033,-1.22464679914735E-016,1.0));
#175=DIRECTION('',(1.0,6.12323399573677E-017,0.0));
#176=SURFACE_STYLE_FILL_AREA(#209);
#177=ORIENTED_EDGE('',*,*,#49,.T.);
#178=CARTESIAN_POINT('',(-4.93038065763132E-032,4.0,4.89858719658941E-016));
#179=DIRECTION('',(6.12323399573677E-017,1.22464679914735E-016,-1.0));
#180=DIRECTION('',(-1.0,0.0,-6.12323399573677E-017));
#181=CARTESIAN_POINT('',(-6.85802207522518E-015,-1.37160441504504E-014,112.0));
#182=DIRECTION('',(6.12323399573677E-017,1.22464679914735E-016,-1.0));
#183=DIRECTION('',(-1.23259516440783E-032,1.0,1.22464679914735E-016));
#184=SURFACE_STYLE_FILL_AREA(#210);
#185=CARTESIAN_POINT('',(-4.28626379701574E-016,-8.57252759403147E-016,7.0));
#186=DIRECTION('',(6.12323399573677E-017,1.22464679914735E-016,-1.0));
#187=DIRECTION('',(-1.23259516440783E-032,1.0,1.22464679914735E-016));
#188=CARTESIAN_POINT('',(0.0,0.0,0.0));
#189=DIRECTION('',(6.12323399573677E-017,1.22464679914735E-016,-1.0));
#190=DIRECTION('',(-1.23259516440783E-032,1.0,1.22464679914735E-016));
#191=SURFACE_STYLE_FILL_AREA(#211);
#192=ORIENTED_EDGE('',*,*,#34,.F.);
#193=ORIENTED_EDGE('',*,*,#42,.T.);
#194=CARTESIAN_POINT('',(-3.64332422746338E-015,-7.28664845492675E-015,59.5));
#195=DIRECTION('',(6.12323399573677E-017,1.22464679914735E-016,-1.0));
#196=DIRECTION('',(-1.23259516440783E-032,1.0,1.22464679914735E-016));
#197=SURFACE_STYLE_FILL_AREA(#212);
#198=ORIENTED_EDGE('',*,*,#42,.F.);
#199=CARTESIAN_POINT('',(-6.85802207522518E-015,2.99999999999999,112.0));
#200=DIRECTION('',(7.49879891330927E-033,-1.22464679914735E-016,1.0));
#201=DIRECTION('',(1.0,6.12323399573677E-017,0.0));
#202=SURFACE_STYLE_FILL_AREA(#213);
#203=ORIENTED_EDGE('',*,*,#49,.F.);
#204=ORIENTED_EDGE('',*,*,#47,.T.);
#205=CARTESIAN_POINT('',(-2.14313189850787E-016,-4.28626379701574E-016,3.5));
#206=DIRECTION('',(6.12323399573677E-017,1.22464679914735E-016,-1.0));
#207=DIRECTION('',(-1.23259516440783E-032,1.0,1.22464679914735E-016));
#208=FILL_AREA_STYLE('',(#214));
#209=FILL_AREA_STYLE('',(#215));
#210=FILL_AREA_STYLE('',(#216));
#211=FILL_AREA_STYLE('',(#217));
#212=FILL_AREA_STYLE('',(#218));
#213=FILL_AREA_STYLE('',(#219));
#214=FILL_AREA_STYLE_COLOUR('',#220);
#215=FILL_AREA_STYLE_COLOUR('',#221);
#216=FILL_AREA_STYLE_COLOUR('',#222);
#217=FILL_AREA_STYLE_COLOUR('',#223);
#218=FILL_AREA_STYLE_COLOUR('',#224);
#219=FILL_AREA_STYLE_COLOUR('',#225);
#220=COLOUR_RGB('',0.501960813999176,0.501960813999176,0.501960813999176);
#221=COLOUR_RGB('',0.501960813999176,0.501960813999176,0.501960813999176);
#222=COLOUR_RGB('',0.501960813999176,0.501960813999176,0.501960813999176);
#223=COLOUR_RGB('',0.501960813999176,0.501960813999176,0.501960813999176);
#224=COLOUR_RGB('',0.501960813999176,0.501960813999176,0.501960813999176);
#225=COLOUR_RGB('',0.501960813999176,0.501960813999176,0.501960813999176);
ENDSEC;
END-ISO-10303-21;
