ISO-10303-21;
HEADER;
FILE_DESCRIPTION((''),'1');
FILE_NAME('T:/02_3D_Field-HP\X2\FF71FF6FFF8CFF9F5916\X0\/02_Step_Field-HP\X2\FF71FF6FFF8CFF9F5916\X0\/21_CK\X2\FF8EFF9EFF70FF98FF9DFF78FF9EFF7CFF7DFF83FF91\X0\/08_\X2\FF7BFF72FF84FF9EFF9BFF6FFF784E38FF8AFF9EFF72FF84FF8EFF99FF80FF9E\X0\+\X2\4E38FF8AFF9EFF72FF84FF7CFF6CFF9DFF78\X0\/\X2\8FFD52A05206\X0\_20230904/ST12-SL6.stp','2023-09-04T00:59:33',(''),(''),'Spatial Interop R21 SP3','Kubotek KeyCreator 2011 V10.0.2 (22737)',' ');
FILE_SCHEMA(('automotive_design'));
ENDSEC;
DATA;
#1=MECHANICAL_DESIGN_GEOMETRIC_PRESENTATION_REPRESENTATION(' ',(#10,#11,#12,#13,#14,#15,#16,#17,#18,#19,#20,#21,#22,#23,#24),#6);
#2=PRODUCT_DEFINITION_CONTEXT('',#25,'design');
#3=APPLICATION_PROTOCOL_DEFINITION('INTERNATIONAL STANDARD','automotive_design',1994,#25);
#4=PRODUCT_CATEGORY_RELATIONSHIP('NONE','NONE',#26,#27);
#5=SHAPE_DEFINITION_REPRESENTATION(#28,#29);
#6= (GEOMETRIC_REPRESENTATION_CONTEXT(3)GLOBAL_UNCERTAINTY_ASSIGNED_CONTEXT((#32))GLOBAL_UNIT_ASSIGNED_CONTEXT((#34,#35,#36))REPRESENTATION_CONTEXT('NONE','WORKSPACE'));
#10=STYLED_ITEM('',(#38,#39),#40);
#11=STYLED_ITEM('',(#41),#42);
#12=STYLED_ITEM('',(#43,#44),#45);
#13=STYLED_ITEM('',(#46,#47),#48);
#14=STYLED_ITEM('',(#49),#50);
#15=STYLED_ITEM('',(#51,#52),#53);
#16=STYLED_ITEM('',(#54),#55);
#17=STYLED_ITEM('',(#56),#57);
#18=STYLED_ITEM('',(#58,#59),#60);
#19=STYLED_ITEM('',(#61),#62);
#20=STYLED_ITEM('',(#63,#64),#65);
#21=STYLED_ITEM('',(#66,#67),#68);
#22=STYLED_ITEM('',(#69,#70),#71);
#23=STYLED_ITEM('',(#72),#73);
#24=STYLED_ITEM('',(#74),#75);
#25=APPLICATION_CONTEXT(' ');
#26=PRODUCT_CATEGORY('part','NONE');
#27=PRODUCT_RELATED_PRODUCT_CATEGORY('detail',' ',(#76));
#28=PRODUCT_DEFINITION_SHAPE('NONE','NONE',#77);
#29=ADVANCED_BREP_SHAPE_REPRESENTATION('240[2]',(#40,#78),#6);
#32=UNCERTAINTY_MEASURE_WITH_UNIT(LENGTH_MEASURE(1.0E-006),#34,'','');
#34= (CONVERSION_BASED_UNIT('MILLIMETRE',#81)LENGTH_UNIT()NAMED_UNIT(#84));
#35= (NAMED_UNIT(#86)PLANE_ANGLE_UNIT()SI_UNIT($,.RADIAN.));
#36= (NAMED_UNIT(#86)SOLID_ANGLE_UNIT()SI_UNIT($,.STERADIAN.));
#38=PRESENTATION_STYLE_ASSIGNMENT((#92));
#39=PRESENTATION_STYLE_ASSIGNMENT((#93));
#40=MANIFOLD_SOLID_BREP('240[2]',#94);
#41=PRESENTATION_STYLE_ASSIGNMENT((#95));
#42=EDGE_CURVE('240[2]',#96,#96,#97,.T.);
#43=PRESENTATION_STYLE_ASSIGNMENT((#98));
#44=PRESENTATION_STYLE_ASSIGNMENT((#99));
#45=ADVANCED_FACE('240[2]',(#100,#101),#102,.T.);
#46=PRESENTATION_STYLE_ASSIGNMENT((#103));
#47=PRESENTATION_STYLE_ASSIGNMENT((#104));
#48=ADVANCED_FACE('240[2]',(#105,#106),#107,.T.);
#49=PRESENTATION_STYLE_ASSIGNMENT((#108));
#50=EDGE_CURVE('240[2]',#109,#109,#110,.T.);
#51=PRESENTATION_STYLE_ASSIGNMENT((#111));
#52=PRESENTATION_STYLE_ASSIGNMENT((#112));
#53=ADVANCED_FACE('240[2]',(#113,#114),#115,.T.);
#54=PRESENTATION_STYLE_ASSIGNMENT((#116));
#55=EDGE_CURVE('240[2]',#117,#117,#118,.T.);
#56=PRESENTATION_STYLE_ASSIGNMENT((#119));
#57=EDGE_CURVE('240[2]',#120,#120,#121,.T.);
#58=PRESENTATION_STYLE_ASSIGNMENT((#122));
#59=PRESENTATION_STYLE_ASSIGNMENT((#123));
#60=ADVANCED_FACE('240[2]',(#124,#125),#126,.T.);
#61=PRESENTATION_STYLE_ASSIGNMENT((#127));
#62=EDGE_CURVE('240[2]',#128,#128,#129,.T.);
#63=PRESENTATION_STYLE_ASSIGNMENT((#130));
#64=PRESENTATION_STYLE_ASSIGNMENT((#131));
#65=ADVANCED_FACE('240[2]',(#132,#133),#134,.T.);
#66=PRESENTATION_STYLE_ASSIGNMENT((#135));
#67=PRESENTATION_STYLE_ASSIGNMENT((#136));
#68=ADVANCED_FACE('240[2]',(#137,#138),#139,.T.);
#69=PRESENTATION_STYLE_ASSIGNMENT((#140));
#70=PRESENTATION_STYLE_ASSIGNMENT((#141));
#71=ADVANCED_FACE('240[2]',(#142,#143),#144,.F.);
#72=PRESENTATION_STYLE_ASSIGNMENT((#145));
#73=EDGE_CURVE('240[2]',#146,#146,#147,.T.);
#74=PRESENTATION_STYLE_ASSIGNMENT((#148));
#75=EDGE_CURVE('240[2]',#149,#149,#150,.T.);
#76=PRODUCT('240[2]','240[2]','PART-240[2]-DESC',(#151));
#77=PRODUCT_DEFINITION('NONE','NONE',#152,#2);
#78=AXIS2_PLACEMENT_3D('',#153,#154,#155);
#81=LENGTH_MEASURE_WITH_UNIT(LENGTH_MEASURE(1.0),#156);
#84=DIMENSIONAL_EXPONENTS(1.0,0.0,0.0,0.0,0.0,0.0,0.0);
#86=DIMENSIONAL_EXPONENTS(0.0,0.0,0.0,0.0,0.0,0.0,0.0);
#92=SURFACE_STYLE_USAGE(.BOTH.,#157);
#93=CURVE_STYLE('',#158,POSITIVE_LENGTH_MEASURE(1000.0),#159);
#94=CLOSED_SHELL('',(#53,#45,#65,#68,#48,#60,#71));
#95=CURVE_STYLE('',#160,POSITIVE_LENGTH_MEASURE(1000.0),#161);
#96=VERTEX_POINT('',#162);
#97=CIRCLE('',#163,3.00000000000003);
#98=SURFACE_STYLE_USAGE(.BOTH.,#164);
#99=CURVE_STYLE('',#165,POSITIVE_LENGTH_MEASURE(1000.0),#166);
#100=FACE_BOUND('',#167,.T.);
#101=FACE_BOUND('',#168,.T.);
#102=CYLINDRICAL_SURFACE('',#169,5.99999999999998);
#103=SURFACE_STYLE_USAGE(.BOTH.,#170);
#104=CURVE_STYLE('',#171,POSITIVE_LENGTH_MEASURE(1000.0),#172);
#105=FACE_BOUND('',#173,.T.);
#106=FACE_BOUND('',#174,.T.);
#107=CONICAL_SURFACE('',#175,5.84529946162068,0.523598775598311);
#108=CURVE_STYLE('',#176,POSITIVE_LENGTH_MEASURE(1000.0),#177);
#109=VERTEX_POINT('',#178);
#110=CIRCLE('',#179,7.00000000000003);
#111=SURFACE_STYLE_USAGE(.BOTH.,#180);
#112=CURVE_STYLE('',#181,POSITIVE_LENGTH_MEASURE(1000.0),#182);
#113=FACE_OUTER_BOUND('',#183,.T.);
#114=FACE_BOUND('',#184,.T.);
#115=PLANE('',#185);
#116=CURVE_STYLE('',#186,POSITIVE_LENGTH_MEASURE(1000.0),#187);
#117=VERTEX_POINT('',#188);
#118=CIRCLE('',#189,6.0);
#119=CURVE_STYLE('',#190,POSITIVE_LENGTH_MEASURE(1000.0),#191);
#120=VERTEX_POINT('',#192);
#121=CIRCLE('',#193,4.69059892324133);
#122=SURFACE_STYLE_USAGE(.BOTH.,#194);
#123=CURVE_STYLE('',#195,POSITIVE_LENGTH_MEASURE(1000.0),#196);
#124=FACE_BOUND('',#197,.T.);
#125=FACE_OUTER_BOUND('',#198,.T.);
#126=PLANE('',#199);
#127=CURVE_STYLE('',#200,POSITIVE_LENGTH_MEASURE(1000.0),#201);
#128=VERTEX_POINT('',#202);
#129=CIRCLE('',#203,5.99999999999995);
#130=SURFACE_STYLE_USAGE(.BOTH.,#204);
#131=CURVE_STYLE('',#205,POSITIVE_LENGTH_MEASURE(1000.0),#206);
#132=FACE_BOUND('',#207,.T.);
#133=FACE_BOUND('',#208,.T.);
#134=CONICAL_SURFACE('',#209,6.49999999999989,0.785398163397446);
#135=SURFACE_STYLE_USAGE(.BOTH.,#210);
#136=CURVE_STYLE('',#211,POSITIVE_LENGTH_MEASURE(1000.0),#212);
#137=FACE_BOUND('',#213,.T.);
#138=FACE_BOUND('',#214,.T.);
#139=CYLINDRICAL_SURFACE('',#215,6.99999999999993);
#140=SURFACE_STYLE_USAGE(.BOTH.,#216);
#141=CURVE_STYLE('',#217,POSITIVE_LENGTH_MEASURE(1000.0),#218);
#142=FACE_BOUND('',#219,.T.);
#143=FACE_BOUND('',#220,.T.);
#144=CYLINDRICAL_SURFACE('',#221,2.99999999999982);
#145=CURVE_STYLE('',#222,POSITIVE_LENGTH_MEASURE(1000.0),#223);
#146=VERTEX_POINT('',#224);
#147=CIRCLE('',#225,6.99999999999983);
#148=CURVE_STYLE('',#226,POSITIVE_LENGTH_MEASURE(1000.0),#227);
#149=VERTEX_POINT('',#228);
#150=CIRCLE('',#229,2.9999999999996);
#151=PRODUCT_CONTEXT('',#25,'mechanical');
#152=PRODUCT_DEFINITION_FORMATION_WITH_SPECIFIED_SOURCE(' ','NONE',#76,.NOT_KNOWN.);
#153=CARTESIAN_POINT('',(0.0,0.0,0.0));
#154=DIRECTION('',(0.0,0.0,1.0));
#155=DIRECTION('',(1.0,0.0,0.0));
#156= (NAMED_UNIT(#84)LENGTH_UNIT()SI_UNIT(.MILLI.,.METRE.));
#157=SURFACE_SIDE_STYLE('',(#231));
#158=DRAUGHTING_PRE_DEFINED_CURVE_FONT('continuous');
#159=COLOUR_RGB('',0.501960813999176,0.501960813999176,0.501960813999176);
#160=DRAUGHTING_PRE_DEFINED_CURVE_FONT('continuous');
#161=COLOUR_RGB('',0.501960813999176,0.501960813999176,0.501960813999176);
#162=CARTESIAN_POINT('',(0.0,3.00000000000003,0.0));
#163=AXIS2_PLACEMENT_3D('',#232,#233,#234);
#164=SURFACE_SIDE_STYLE('',(#235));
#165=DRAUGHTING_PRE_DEFINED_CURVE_FONT('continuous');
#166=COLOUR_RGB('',0.501960813999176,0.501960813999176,0.501960813999176);
#167=EDGE_LOOP('',(#236));
#168=EDGE_LOOP('',(#237));
#169=AXIS2_PLACEMENT_3D('',#238,#239,#240);
#170=SURFACE_SIDE_STYLE('',(#241));
#171=DRAUGHTING_PRE_DEFINED_CURVE_FONT('continuous');
#172=COLOUR_RGB('',0.501960813999176,0.501960813999176,0.501960813999176);
#173=EDGE_LOOP('',(#242));
#174=EDGE_LOOP('',(#243));
#175=AXIS2_PLACEMENT_3D('',#244,#245,#246);
#176=DRAUGHTING_PRE_DEFINED_CURVE_FONT('continuous');
#177=COLOUR_RGB('',0.501960813999176,0.501960813999176,0.501960813999176);
#178=CARTESIAN_POINT('',(-2.44929359829484E-016,7.00000000000003,4.00000000000021));
#179=AXIS2_PLACEMENT_3D('',#247,#248,#249);
#180=SURFACE_SIDE_STYLE('',(#250));
#181=DRAUGHTING_PRE_DEFINED_CURVE_FONT('continuous');
#182=COLOUR_RGB('',0.501960813999176,0.501960813999176,0.501960813999176);
#183=EDGE_LOOP('',(#251));
#184=EDGE_LOOP('',(#252));
#185=AXIS2_PLACEMENT_3D('',#253,#254,#255);
#186=DRAUGHTING_PRE_DEFINED_CURVE_FONT('continuous');
#187=COLOUR_RGB('',0.501960813999176,0.501960813999176,0.501960813999176);
#188=CARTESIAN_POINT('',(-5.20474889637625E-015,5.99999999999999,85.0000000000001));
#189=AXIS2_PLACEMENT_3D('',#256,#257,#258);
#190=DRAUGHTING_PRE_DEFINED_CURVE_FONT('continuous');
#191=COLOUR_RGB('',0.501960813999176,0.501960813999176,0.501960813999176);
#192=CARTESIAN_POINT('',(7.88860905221012E-031,4.69059892324133,-1.4210854715202E-014));
#193=AXIS2_PLACEMENT_3D('',#259,#260,#261);
#194=SURFACE_SIDE_STYLE('',(#262));
#195=DRAUGHTING_PRE_DEFINED_CURVE_FONT('continuous');
#196=COLOUR_RGB('',0.501960813999176,0.501960813999176,0.501960813999176);
#197=EDGE_LOOP('',(#263));
#198=EDGE_LOOP('',(#264));
#199=AXIS2_PLACEMENT_3D('',#265,#266,#267);
#200=DRAUGHTING_PRE_DEFINED_CURVE_FONT('continuous');
#201=COLOUR_RGB('',0.501960813999176,0.501960813999176,0.501960813999176);
#202=CARTESIAN_POINT('',(-1.33486501107069E-015,5.99999999999995,21.8000000000012));
#203=AXIS2_PLACEMENT_3D('',#268,#269,#270);
#204=SURFACE_SIDE_STYLE('',(#271));
#205=DRAUGHTING_PRE_DEFINED_CURVE_FONT('continuous');
#206=COLOUR_RGB('',0.501960813999176,0.501960813999176,0.501960813999176);
#207=EDGE_LOOP('',(#272));
#208=EDGE_LOOP('',(#273));
#209=AXIS2_PLACEMENT_3D('',#274,#275,#276);
#210=SURFACE_SIDE_STYLE('',(#277));
#211=DRAUGHTING_PRE_DEFINED_CURVE_FONT('continuous');
#212=COLOUR_RGB('',0.501960813999176,0.501960813999176,0.501960813999176);
#213=EDGE_LOOP('',(#278));
#214=EDGE_LOOP('',(#279));
#215=AXIS2_PLACEMENT_3D('',#280,#281,#282);
#216=SURFACE_SIDE_STYLE('',(#283));
#217=DRAUGHTING_PRE_DEFINED_CURVE_FONT('continuous');
#218=COLOUR_RGB('',0.501960813999176,0.501960813999176,0.501960813999176);
#219=EDGE_LOOP('',(#284));
#220=EDGE_LOOP('',(#285));
#221=AXIS2_PLACEMENT_3D('',#286,#287,#288);
#222=DRAUGHTING_PRE_DEFINED_CURVE_FONT('continuous');
#223=COLOUR_RGB('',0.501960813999176,0.501960813999176,0.501960813999176);
#224=CARTESIAN_POINT('',(-1.27363267111333E-015,6.99999999999982,20.8000000000013));
#225=AXIS2_PLACEMENT_3D('',#289,#290,#291);
#226=DRAUGHTING_PRE_DEFINED_CURVE_FONT('continuous');
#227=COLOUR_RGB('',0.501960813999176,0.501960813999176,0.501960813999176);
#228=CARTESIAN_POINT('',(-5.20474889637625E-015,2.99999999999959,85.0000000000001));
#229=AXIS2_PLACEMENT_3D('',#292,#293,#294);
#231=SURFACE_STYLE_FILL_AREA(#295);
#232=CARTESIAN_POINT('',(0.0,0.0,0.0));
#233=DIRECTION('',(6.12323399573677E-017,1.22464679914735E-016,-1.0));
#234=DIRECTION('',(-1.23259516440783E-032,1.0,1.22464679914735E-016));
#235=SURFACE_STYLE_FILL_AREA(#296);
#236=ORIENTED_EDGE('',*,*,#62,.F.);
#237=ORIENTED_EDGE('',*,*,#55,.T.);
#238=CARTESIAN_POINT('',(-3.26980695372347E-015,-6.53961390744694E-015,53.4000000000006));
#239=DIRECTION('',(6.12323399573677E-017,1.22464679914735E-016,-1.0));
#240=DIRECTION('',(-1.23259516440783E-032,1.0,1.22464679914735E-016));
#241=SURFACE_STYLE_FILL_AREA(#297);
#242=ORIENTED_EDGE('',*,*,#57,.F.);
#243=ORIENTED_EDGE('',*,*,#50,.T.);
#244=CARTESIAN_POINT('',(-1.22464679914741E-016,-2.44929359829483E-016,2.0000000000001));
#245=DIRECTION('',(-6.12323399573677E-017,-1.22464679914735E-016,1.0));
#246=DIRECTION('',(-1.23259516440783E-032,1.0,1.22464679914735E-016));
#247=CARTESIAN_POINT('',(-2.44929359829484E-016,-4.89858719658967E-016,4.00000000000021));
#248=DIRECTION('',(6.12323399573677E-017,1.22464679914735E-016,-1.0));
#249=DIRECTION('',(-1.23259516440783E-032,1.0,1.22464679914735E-016));
#250=SURFACE_STYLE_FILL_AREA(#298);
#251=ORIENTED_EDGE('',*,*,#55,.F.);
#252=ORIENTED_EDGE('',*,*,#75,.T.);
#253=CARTESIAN_POINT('',(-5.20474889637625E-015,4.49999999999979,85.0000000000001));
#254=DIRECTION('',(-6.12323399573677E-017,-2.49094046578142E-015,1.0));
#255=DIRECTION('',(1.57353266145061E-031,-1.0,-2.49094046578142E-015));
#256=CARTESIAN_POINT('',(-5.20474889637625E-015,-1.04094977927525E-014,85.0000000000001));
#257=DIRECTION('',(6.12323399573677E-017,1.22464679914735E-016,-1.0));
#258=DIRECTION('',(-1.23259516440783E-032,1.0,1.22464679914735E-016));
#259=CARTESIAN_POINT('',(7.88860905221012E-031,1.57772181044202E-030,-1.4210854715202E-014));
#260=DIRECTION('',(6.12323399573676E-017,1.22464679914735E-016,-1.0));
#261=DIRECTION('',(-1.23259516440783E-032,1.0,1.22464679914735E-016));
#262=SURFACE_STYLE_FILL_AREA(#299);
#263=ORIENTED_EDGE('',*,*,#42,.F.);
#264=ORIENTED_EDGE('',*,*,#57,.T.);
#265=CARTESIAN_POINT('',(0.0,3.84529946162068,0.0));
#266=DIRECTION('',(6.12323399573677E-017,-8.28334613650071E-015,-1.0));
#267=DIRECTION('',(5.0238151388399E-031,1.0,-8.28334613650071E-015));
#268=CARTESIAN_POINT('',(-1.33486501107069E-015,-2.66973002214138E-015,21.8000000000012));
#269=DIRECTION('',(6.12323399573676E-017,1.22464679914735E-016,-1.0));
#270=DIRECTION('',(-1.23259516440783E-032,1.0,1.22464679914735E-016));
#271=SURFACE_STYLE_FILL_AREA(#300);
#272=ORIENTED_EDGE('',*,*,#73,.F.);
#273=ORIENTED_EDGE('',*,*,#62,.T.);
#274=CARTESIAN_POINT('',(-1.30424884109201E-015,-2.60849768218402E-015,21.3000000000013));
#275=DIRECTION('',(6.12323399573677E-017,1.22464679914735E-016,-1.0));
#276=DIRECTION('',(-1.23259516440783E-032,1.0,1.22464679914735E-016));
#277=SURFACE_STYLE_FILL_AREA(#301);
#278=ORIENTED_EDGE('',*,*,#50,.F.);
#279=ORIENTED_EDGE('',*,*,#73,.T.);
#280=CARTESIAN_POINT('',(-7.59281015471407E-016,-1.51856203094281E-015,12.4000000000008));
#281=DIRECTION('',(6.12323399573677E-017,1.22464679914735E-016,-1.0));
#282=DIRECTION('',(-1.23259516440783E-032,1.0,1.22464679914735E-016));
#283=SURFACE_STYLE_FILL_AREA(#302);
#284=ORIENTED_EDGE('',*,*,#75,.F.);
#285=ORIENTED_EDGE('',*,*,#42,.T.);
#286=CARTESIAN_POINT('',(-2.60237444818813E-015,-5.20474889637625E-015,42.5));
#287=DIRECTION('',(6.12323399573677E-017,1.22464679914735E-016,-1.0));
#288=DIRECTION('',(-1.23259516440783E-032,1.0,1.22464679914735E-016));
#289=CARTESIAN_POINT('',(-1.27363267111333E-015,-2.54726534222666E-015,20.8000000000013));
#290=DIRECTION('',(6.12323399573677E-017,1.22464679914735E-016,-1.0));
#291=DIRECTION('',(-1.23259516440783E-032,1.0,1.22464679914735E-016));
#292=CARTESIAN_POINT('',(-5.20474889637625E-015,-1.04094977927525E-014,85.0000000000001));
#293=DIRECTION('',(6.12323399573676E-017,1.22464679914735E-016,-1.0));
#294=DIRECTION('',(-1.23259516440783E-032,1.0,1.22464679914735E-016));
#295=FILL_AREA_STYLE('',(#303));
#296=FILL_AREA_STYLE('',(#304));
#297=FILL_AREA_STYLE('',(#305));
#298=FILL_AREA_STYLE('',(#306));
#299=FILL_AREA_STYLE('',(#307));
#300=FILL_AREA_STYLE('',(#308));
#301=FILL_AREA_STYLE('',(#309));
#302=FILL_AREA_STYLE('',(#310));
#303=FILL_AREA_STYLE_COLOUR('',#311);
#304=FILL_AREA_STYLE_COLOUR('',#312);
#305=FILL_AREA_STYLE_COLOUR('',#313);
#306=FILL_AREA_STYLE_COLOUR('',#314);
#307=FILL_AREA_STYLE_COLOUR('',#315);
#308=FILL_AREA_STYLE_COLOUR('',#316);
#309=FILL_AREA_STYLE_COLOUR('',#317);
#310=FILL_AREA_STYLE_COLOUR('',#318);
#311=COLOUR_RGB('',0.501960813999176,0.501960813999176,0.501960813999176);
#312=COLOUR_RGB('',0.501960813999176,0.501960813999176,0.501960813999176);
#313=COLOUR_RGB('',0.501960813999176,0.501960813999176,0.501960813999176);
#314=COLOUR_RGB('',0.501960813999176,0.501960813999176,0.501960813999176);
#315=COLOUR_RGB('',0.501960813999176,0.501960813999176,0.501960813999176);
#316=COLOUR_RGB('',0.501960813999176,0.501960813999176,0.501960813999176);
#317=COLOUR_RGB('',0.501960813999176,0.501960813999176,0.501960813999176);
#318=COLOUR_RGB('',0.501960813999176,0.501960813999176,0.501960813999176);
ENDSEC;
END-ISO-10303-21;
