ISO-10303-21;
HEADER;
FILE_DESCRIPTION((''),'1');
FILE_NAME('T:/00_BIG-HP\X2\FF71FF6FFF8CFF9F\X0\/2022_\X2\30C030A630F330ED30FC30C930C730FC30BF\X0\/02_STEP\X2\FF83FF9EFF70FF80\X0\/LINK\X2\7528FF83FF9EFF70FF80FF8EFF99FF80FF9E\X0\/CK\X2\FF8DFF6FFF84FF9E30FBFF71FF78FF7EFF7BFF98\X0\/10_\X2\4ED54E0A305275284E38FF8AFF9EFF72FF84FF7CFF98FF70FF7DFF9E\X0\/06_\X2\FF7BFF72FF84FF9EFF9BFF6FFF784E38FF8AFF9EFF72FF84FF8EFF99FF80FF9E\X0\/\X2\5EA76A19\X0\_\X2\5C5E6027590966F4\X0\/ST12-SL5.stp','2022-09-28T01:03:17',(''),(''),'Spatial Interop R21 SP3','Kubotek KeyCreator 2011 V10.0.2 (22737)',' ');
FILE_SCHEMA(('automotive_design'));
ENDSEC;
DATA;
#1=MECHANICAL_DESIGN_GEOMETRIC_PRESENTATION_REPRESENTATION(' ',(#10,#11,#12,#13,#14,#15,#16,#17,#18,#19,#20),#6);
#2=PRODUCT_DEFINITION_CONTEXT('',#21,'design');
#3=APPLICATION_PROTOCOL_DEFINITION('INTERNATIONAL STANDARD','automotive_design',1994,#21);
#4=PRODUCT_CATEGORY_RELATIONSHIP('NONE','NONE',#22,#23);
#5=SHAPE_DEFINITION_REPRESENTATION(#24,#25);
#6= (GEOMETRIC_REPRESENTATION_CONTEXT(3)GLOBAL_UNCERTAINTY_ASSIGNED_CONTEXT((#28))GLOBAL_UNIT_ASSIGNED_CONTEXT((#30,#31,#32))REPRESENTATION_CONTEXT('NONE','WORKSPACE'));
#10=STYLED_ITEM('',(#34,#35),#36);
#11=STYLED_ITEM('',(#37),#38);
#12=STYLED_ITEM('',(#39,#40),#41);
#13=STYLED_ITEM('',(#42),#43);
#14=STYLED_ITEM('',(#44,#45),#46);
#15=STYLED_ITEM('',(#47),#48);
#16=STYLED_ITEM('',(#49,#50),#51);
#17=STYLED_ITEM('',(#52,#53),#54);
#18=STYLED_ITEM('',(#55),#56);
#19=STYLED_ITEM('',(#57),#58);
#20=STYLED_ITEM('',(#59,#60),#61);
#21=APPLICATION_CONTEXT(' ');
#22=PRODUCT_CATEGORY('part','NONE');
#23=PRODUCT_RELATED_PRODUCT_CATEGORY('detail',' ',(#62));
#24=PRODUCT_DEFINITION_SHAPE('NONE','NONE',#63);
#25=ADVANCED_BREP_SHAPE_REPRESENTATION('240[2]',(#41,#64),#6);
#28=UNCERTAINTY_MEASURE_WITH_UNIT(LENGTH_MEASURE(1.0E-006),#30,'','');
#30= (CONVERSION_BASED_UNIT('MILLIMETRE',#67)LENGTH_UNIT()NAMED_UNIT(#70));
#31= (NAMED_UNIT(#72)PLANE_ANGLE_UNIT()SI_UNIT($,.RADIAN.));
#32= (NAMED_UNIT(#72)SOLID_ANGLE_UNIT()SI_UNIT($,.STERADIAN.));
#34=PRESENTATION_STYLE_ASSIGNMENT((#78));
#35=PRESENTATION_STYLE_ASSIGNMENT((#79));
#36=ADVANCED_FACE('240[2]',(#80,#81),#82,.T.);
#37=PRESENTATION_STYLE_ASSIGNMENT((#83));
#38=EDGE_CURVE('240[2]',#84,#84,#85,.T.);
#39=PRESENTATION_STYLE_ASSIGNMENT((#86));
#40=PRESENTATION_STYLE_ASSIGNMENT((#87));
#41=MANIFOLD_SOLID_BREP('240[2]',#88);
#42=PRESENTATION_STYLE_ASSIGNMENT((#89));
#43=EDGE_CURVE('240[2]',#90,#90,#91,.T.);
#44=PRESENTATION_STYLE_ASSIGNMENT((#92));
#45=PRESENTATION_STYLE_ASSIGNMENT((#93));
#46=ADVANCED_FACE('240[2]',(#94,#95),#96,.T.);
#47=PRESENTATION_STYLE_ASSIGNMENT((#97));
#48=EDGE_CURVE('240[2]',#98,#98,#99,.T.);
#49=PRESENTATION_STYLE_ASSIGNMENT((#100));
#50=PRESENTATION_STYLE_ASSIGNMENT((#101));
#51=ADVANCED_FACE('240[2]',(#102,#103),#104,.T.);
#52=PRESENTATION_STYLE_ASSIGNMENT((#105));
#53=PRESENTATION_STYLE_ASSIGNMENT((#106));
#54=ADVANCED_FACE('240[2]',(#107,#108),#109,.T.);
#55=PRESENTATION_STYLE_ASSIGNMENT((#110));
#56=EDGE_CURVE('240[2]',#111,#111,#112,.T.);
#57=PRESENTATION_STYLE_ASSIGNMENT((#113));
#58=EDGE_CURVE('240[2]',#114,#114,#115,.T.);
#59=PRESENTATION_STYLE_ASSIGNMENT((#116));
#60=PRESENTATION_STYLE_ASSIGNMENT((#117));
#61=ADVANCED_FACE('240[2]',(#118,#119),#120,.F.);
#62=PRODUCT('240[2]','240[2]','PART-240[2]-DESC',(#121));
#63=PRODUCT_DEFINITION('NONE','NONE',#122,#2);
#64=AXIS2_PLACEMENT_3D('',#123,#124,#125);
#67=LENGTH_MEASURE_WITH_UNIT(LENGTH_MEASURE(1.0),#126);
#70=DIMENSIONAL_EXPONENTS(1.0,0.0,0.0,0.0,0.0,0.0,0.0);
#72=DIMENSIONAL_EXPONENTS(0.0,0.0,0.0,0.0,0.0,0.0,0.0);
#78=SURFACE_STYLE_USAGE(.BOTH.,#127);
#79=CURVE_STYLE('',#128,POSITIVE_LENGTH_MEASURE(1000.0),#129);
#80=FACE_BOUND('',#130,.T.);
#81=FACE_OUTER_BOUND('',#131,.T.);
#82=PLANE('',#132);
#83=CURVE_STYLE('',#133,POSITIVE_LENGTH_MEASURE(1000.0),#134);
#84=VERTEX_POINT('',#135);
#85=CIRCLE('',#136,5.99999999999999);
#86=SURFACE_STYLE_USAGE(.BOTH.,#137);
#87=CURVE_STYLE('',#138,POSITIVE_LENGTH_MEASURE(1000.0),#139);
#88=CLOSED_SHELL('',(#61,#51,#46,#54,#36));
#89=CURVE_STYLE('',#140,POSITIVE_LENGTH_MEASURE(1000.0),#141);
#90=VERTEX_POINT('',#142);
#91=CIRCLE('',#143,6.0);
#92=SURFACE_STYLE_USAGE(.BOTH.,#144);
#93=CURVE_STYLE('',#145,POSITIVE_LENGTH_MEASURE(1000.0),#146);
#94=FACE_BOUND('',#147,.T.);
#95=FACE_BOUND('',#148,.T.);
#96=CYLINDRICAL_SURFACE('',#149,5.99999999999999);
#97=CURVE_STYLE('',#150,POSITIVE_LENGTH_MEASURE(1000.0),#151);
#98=VERTEX_POINT('',#152);
#99=CIRCLE('',#153,2.5);
#100=SURFACE_STYLE_USAGE(.BOTH.,#154);
#101=CURVE_STYLE('',#155,POSITIVE_LENGTH_MEASURE(1000.0),#156);
#102=FACE_BOUND('',#157,.T.);
#103=FACE_BOUND('',#158,.T.);
#104=CONICAL_SURFACE('',#159,3.69059892324149,0.5235987755983);
#105=SURFACE_STYLE_USAGE(.BOTH.,#160);
#106=CURVE_STYLE('',#161,POSITIVE_LENGTH_MEASURE(1000.0),#162);
#107=FACE_BOUND('',#163,.T.);
#108=FACE_OUTER_BOUND('',#164,.T.);
#109=PLANE('',#165);
#110=CURVE_STYLE('',#166,POSITIVE_LENGTH_MEASURE(1000.0),#167);
#111=VERTEX_POINT('',#168);
#112=CIRCLE('',#169,2.5);
#113=CURVE_STYLE('',#170,POSITIVE_LENGTH_MEASURE(1000.0),#171);
#114=VERTEX_POINT('',#172);
#115=CIRCLE('',#173,3.69059892324149);
#116=SURFACE_STYLE_USAGE(.BOTH.,#174);
#117=CURVE_STYLE('',#175,POSITIVE_LENGTH_MEASURE(1000.0),#176);
#118=FACE_BOUND('',#177,.T.);
#119=FACE_BOUND('',#178,.T.);
#120=CYLINDRICAL_SURFACE('',#179,2.5);
#121=PRODUCT_CONTEXT('',#21,'mechanical');
#122=PRODUCT_DEFINITION_FORMATION_WITH_SPECIFIED_SOURCE(' ','NONE',#62,.NOT_KNOWN.);
#123=CARTESIAN_POINT('',(0.0,0.0,0.0));
#124=DIRECTION('',(0.0,0.0,1.0));
#125=DIRECTION('',(1.0,0.0,0.0));
#126= (NAMED_UNIT(#70)LENGTH_UNIT()SI_UNIT(.MILLI.,.METRE.));
#127=SURFACE_SIDE_STYLE('',(#181));
#128=DRAUGHTING_PRE_DEFINED_CURVE_FONT('continuous');
#129=COLOUR_RGB('',0.501960813999176,0.501960813999176,0.501960813999176);
#130=EDGE_LOOP('',(#182));
#131=EDGE_LOOP('',(#183));
#132=AXIS2_PLACEMENT_3D('',#184,#185,#186);
#133=DRAUGHTING_PRE_DEFINED_CURVE_FONT('continuous');
#134=COLOUR_RGB('',0.501960813999176,0.501960813999176,0.501960813999176);
#135=CARTESIAN_POINT('',(-5.87877538267964,-1.19999999999995,85.0));
#136=AXIS2_PLACEMENT_3D('',#187,#188,#189);
#137=SURFACE_SIDE_STYLE('',(#190));
#138=DRAUGHTING_PRE_DEFINED_CURVE_FONT('continuous');
#139=COLOUR_RGB('',0.501960813999176,0.501960813999176,0.501960813999176);
#140=DRAUGHTING_PRE_DEFINED_CURVE_FONT('continuous');
#141=COLOUR_RGB('',0.501960813999176,0.501960813999176,0.501960813999176);
#142=CARTESIAN_POINT('',(-3.1961524227066,-5.07785483160229,4.0));
#143=AXIS2_PLACEMENT_3D('',#191,#192,#193);
#144=SURFACE_SIDE_STYLE('',(#194));
#145=DRAUGHTING_PRE_DEFINED_CURVE_FONT('continuous');
#146=COLOUR_RGB('',0.501960813999176,0.501960813999176,0.501960813999176);
#147=EDGE_LOOP('',(#195));
#148=EDGE_LOOP('',(#196));
#149=AXIS2_PLACEMENT_3D('',#197,#198,#199);
#150=DRAUGHTING_PRE_DEFINED_CURVE_FONT('continuous');
#151=COLOUR_RGB('',0.501960813999176,0.501960813999176,0.501960813999176);
#152=CARTESIAN_POINT('',(2.49999999999999,5.20474889637625E-015,85.0));
#153=AXIS2_PLACEMENT_3D('',#200,#201,#202);
#154=SURFACE_SIDE_STYLE('',(#203));
#155=DRAUGHTING_PRE_DEFINED_CURVE_FONT('continuous');
#156=COLOUR_RGB('',0.501960813999176,0.501960813999176,0.501960813999176);
#157=EDGE_LOOP('',(#204));
#158=EDGE_LOOP('',(#205));
#159=AXIS2_PLACEMENT_3D('',#206,#207,#208);
#160=SURFACE_SIDE_STYLE('',(#209));
#161=DRAUGHTING_PRE_DEFINED_CURVE_FONT('continuous');
#162=COLOUR_RGB('',0.501960813999176,0.501960813999176,0.501960813999176);
#163=EDGE_LOOP('',(#210));
#164=EDGE_LOOP('',(#211));
#165=AXIS2_PLACEMENT_3D('',#212,#213,#214);
#166=DRAUGHTING_PRE_DEFINED_CURVE_FONT('continuous');
#167=COLOUR_RGB('',0.501960813999176,0.501960813999176,0.501960813999176);
#168=CARTESIAN_POINT('',(2.49999999999999,5.20474889637625E-015,0.0));
#169=AXIS2_PLACEMENT_3D('',#215,#216,#217);
#170=DRAUGHTING_PRE_DEFINED_CURVE_FONT('continuous');
#171=COLOUR_RGB('',0.501960813999176,0.501960813999176,0.501960813999176);
#172=CARTESIAN_POINT('',(3.69059892324149,-1.12993496631837E-015,4.51968015828435E-016));
#173=AXIS2_PLACEMENT_3D('',#218,#219,#220);
#174=SURFACE_SIDE_STYLE('',(#221));
#175=DRAUGHTING_PRE_DEFINED_CURVE_FONT('continuous');
#176=COLOUR_RGB('',0.501960813999176,0.501960813999176,0.501960813999176);
#177=EDGE_LOOP('',(#222));
#178=EDGE_LOOP('',(#223));
#179=AXIS2_PLACEMENT_3D('',#224,#225,#226);
#181=SURFACE_STYLE_FILL_AREA(#227);
#182=ORIENTED_EDGE('',*,*,#48,.T.);
#183=ORIENTED_EDGE('',*,*,#38,.T.);
#184=CARTESIAN_POINT('',(-1.29812560709619E-014,-5.99999999999998,85.0));
#185=DIRECTION('',(-2.81159925711243E-065,6.12323399573677E-017,1.0));
#186=DIRECTION('',(1.0,4.59169004331693E-049,0.0));
#187=CARTESIAN_POINT('',(-1.04094977927525E-014,5.20474889637625E-015,85.0));
#188=DIRECTION('',(-6.62340818762635E-033,6.12323399573677E-017,1.0));
#189=DIRECTION('',(1.0,-4.28626379701574E-016,3.28692043842089E-032));
#190=SURFACE_STYLE_FILL_AREA(#228);
#191=CARTESIAN_POINT('',(-4.89858719658941E-016,2.44929359829471E-016,4.0));
#192=DIRECTION('',(1.22464679914735E-016,-6.12323399573678E-017,-1.0));
#193=DIRECTION('',(1.0,-4.28626379701574E-016,1.22464679914735E-016));
#194=SURFACE_STYLE_FILL_AREA(#229);
#195=ORIENTED_EDGE('',*,*,#38,.F.);
#196=ORIENTED_EDGE('',*,*,#43,.F.);
#197=CARTESIAN_POINT('',(2.78645923429625E-015,-1.39322961714813E-015,-22.7531663516068));
#198=DIRECTION('',(1.22464679914735E-016,-6.12323399573677E-017,-1.0));
#199=DIRECTION('',(1.0,-4.28626379701574E-016,1.22464679914735E-016));
#200=CARTESIAN_POINT('',(-1.04094977927525E-014,5.20474889637625E-015,85.0));
#201=DIRECTION('',(2.81159925711243E-065,-6.12323399573677E-017,-1.0));
#202=DIRECTION('',(1.0,1.72160801535391E-081,2.81159925711243E-065));
#203=SURFACE_STYLE_FILL_AREA(#230);
#204=ORIENTED_EDGE('',*,*,#58,.T.);
#205=ORIENTED_EDGE('',*,*,#43,.T.);
#206=CARTESIAN_POINT('',(0.0,0.0,0.0));
#207=DIRECTION('',(-1.22464679914735E-016,6.12323399573677E-017,1.0));
#208=DIRECTION('',(-1.0,4.28626379701574E-016,-1.22464679914735E-016));
#209=SURFACE_STYLE_FILL_AREA(#231);
#210=ORIENTED_EDGE('',*,*,#56,.T.);
#211=ORIENTED_EDGE('',*,*,#58,.F.);
#212=CARTESIAN_POINT('',(-1.07156594925393E-015,-2.49999999999999,1.53080849893419E-016));
#213=DIRECTION('',(1.22464679914735E-016,-6.12323399573677E-017,-1.0));
#214=DIRECTION('',(0.0,-1.0,6.12323399573677E-017));
#215=CARTESIAN_POINT('',(-1.04094977927525E-014,5.20474889637625E-015,0.0));
#216=DIRECTION('',(-1.22464679914735E-016,6.12323399573677E-017,1.0));
#217=DIRECTION('',(1.0,7.49879891330927E-033,1.22464679914735E-016));
#218=CARTESIAN_POINT('',(-6.64177238004083E-047,3.32088619002042E-047,5.42341872339446E-031));
#219=DIRECTION('',(-1.22464679914735E-016,6.12323399573677E-017,1.0));
#220=DIRECTION('',(-1.0,4.28626379701574E-016,-1.22464679914735E-016));
#221=SURFACE_STYLE_FILL_AREA(#232);
#222=ORIENTED_EDGE('',*,*,#56,.F.);
#223=ORIENTED_EDGE('',*,*,#48,.F.);
#224=CARTESIAN_POINT('',(-1.04094977927525E-014,5.20474889637625E-015,85.0));
#225=DIRECTION('',(0.0,0.0,-1.0));
#226=DIRECTION('',(1.0,0.0,0.0));
#227=FILL_AREA_STYLE('',(#233));
#228=FILL_AREA_STYLE('',(#234));
#229=FILL_AREA_STYLE('',(#235));
#230=FILL_AREA_STYLE('',(#236));
#231=FILL_AREA_STYLE('',(#237));
#232=FILL_AREA_STYLE('',(#238));
#233=FILL_AREA_STYLE_COLOUR('',#239);
#234=FILL_AREA_STYLE_COLOUR('',#240);
#235=FILL_AREA_STYLE_COLOUR('',#241);
#236=FILL_AREA_STYLE_COLOUR('',#242);
#237=FILL_AREA_STYLE_COLOUR('',#243);
#238=FILL_AREA_STYLE_COLOUR('',#244);
#239=COLOUR_RGB('',0.501960813999176,0.501960813999176,0.501960813999176);
#240=COLOUR_RGB('',0.501960813999176,0.501960813999176,0.501960813999176);
#241=COLOUR_RGB('',0.501960813999176,0.501960813999176,0.501960813999176);
#242=COLOUR_RGB('',0.501960813999176,0.501960813999176,0.501960813999176);
#243=COLOUR_RGB('',0.501960813999176,0.501960813999176,0.501960813999176);
#244=COLOUR_RGB('',0.501960813999176,0.501960813999176,0.501960813999176);
ENDSEC;
END-ISO-10303-21;
