ISO-10303-21;
HEADER;
FILE_DESCRIPTION((''),'1');
FILE_NAME('T:/02_3D_Field-HP\X2\FF71FF6FFF8CFF9F5916\X0\/02_Step_Field-HP\X2\FF71FF6FFF8CFF9F5916\X0\/21_CK\X2\FF8EFF9EFF70FF98FF9DFF78FF9EFF7CFF7DFF83FF91\X0\/08_\X2\FF7BFF72FF84FF9EFF9BFF6FFF784E38FF8AFF9EFF72FF84FF8EFF99FF80FF9E\X0\+\X2\4E38FF8AFF9EFF72FF84FF7CFF6CFF9DFF78\X0\/\X2\8FFD52A05206\X0\_20230904/ST12-SL4.stp','2023-09-04T00:45:00',(''),(''),'Spatial Interop R21 SP3','Kubotek KeyCreator 2011 V10.0.2 (22737)',' ');
FILE_SCHEMA(('automotive_design'));
ENDSEC;
DATA;
#1=MECHANICAL_DESIGN_GEOMETRIC_PRESENTATION_REPRESENTATION(' ',(#10,#11,#12,#13,#14,#15,#16,#17,#18,#19,#20),#6);
#2=PRODUCT_DEFINITION_CONTEXT('',#21,'design');
#3=APPLICATION_PROTOCOL_DEFINITION('INTERNATIONAL STANDARD','automotive_design',1994,#21);
#4=PRODUCT_CATEGORY_RELATIONSHIP('NONE','NONE',#22,#23);
#5=SHAPE_DEFINITION_REPRESENTATION(#24,#25);
#6= (GEOMETRIC_REPRESENTATION_CONTEXT(3)GLOBAL_UNCERTAINTY_ASSIGNED_CONTEXT((#28))GLOBAL_UNIT_ASSIGNED_CONTEXT((#30,#31,#32))REPRESENTATION_CONTEXT('NONE','WORKSPACE'));
#10=STYLED_ITEM('',(#34,#35),#36);
#11=STYLED_ITEM('',(#37,#38),#39);
#12=STYLED_ITEM('',(#40,#41),#42);
#13=STYLED_ITEM('',(#43,#44),#45);
#14=STYLED_ITEM('',(#46),#47);
#15=STYLED_ITEM('',(#48),#49);
#16=STYLED_ITEM('',(#50,#51),#52);
#17=STYLED_ITEM('',(#53),#54);
#18=STYLED_ITEM('',(#55),#56);
#19=STYLED_ITEM('',(#57,#58),#59);
#20=STYLED_ITEM('',(#60),#61);
#21=APPLICATION_CONTEXT(' ');
#22=PRODUCT_CATEGORY('part','NONE');
#23=PRODUCT_RELATED_PRODUCT_CATEGORY('detail',' ',(#62));
#24=PRODUCT_DEFINITION_SHAPE('NONE','NONE',#63);
#25=ADVANCED_BREP_SHAPE_REPRESENTATION('240[2]',(#59,#64),#6);
#28=UNCERTAINTY_MEASURE_WITH_UNIT(LENGTH_MEASURE(1.0E-006),#30,'','');
#30= (CONVERSION_BASED_UNIT('MILLIMETRE',#67)LENGTH_UNIT()NAMED_UNIT(#70));
#31= (NAMED_UNIT(#72)PLANE_ANGLE_UNIT()SI_UNIT($,.RADIAN.));
#32= (NAMED_UNIT(#72)SOLID_ANGLE_UNIT()SI_UNIT($,.STERADIAN.));
#34=PRESENTATION_STYLE_ASSIGNMENT((#78));
#35=PRESENTATION_STYLE_ASSIGNMENT((#79));
#36=ADVANCED_FACE('240[2]',(#80,#81),#82,.F.);
#37=PRESENTATION_STYLE_ASSIGNMENT((#83));
#38=PRESENTATION_STYLE_ASSIGNMENT((#84));
#39=ADVANCED_FACE('240[2]',(#85,#86),#87,.T.);
#40=PRESENTATION_STYLE_ASSIGNMENT((#88));
#41=PRESENTATION_STYLE_ASSIGNMENT((#89));
#42=ADVANCED_FACE('240[2]',(#90,#91),#92,.T.);
#43=PRESENTATION_STYLE_ASSIGNMENT((#93));
#44=PRESENTATION_STYLE_ASSIGNMENT((#94));
#45=ADVANCED_FACE('240[2]',(#95,#96),#97,.T.);
#46=PRESENTATION_STYLE_ASSIGNMENT((#98));
#47=EDGE_CURVE('240[2]',#99,#99,#100,.T.);
#48=PRESENTATION_STYLE_ASSIGNMENT((#101));
#49=EDGE_CURVE('240[2]',#102,#102,#103,.T.);
#50=PRESENTATION_STYLE_ASSIGNMENT((#104));
#51=PRESENTATION_STYLE_ASSIGNMENT((#105));
#52=ADVANCED_FACE('240[2]',(#106,#107),#108,.T.);
#53=PRESENTATION_STYLE_ASSIGNMENT((#109));
#54=EDGE_CURVE('240[2]',#110,#110,#111,.T.);
#55=PRESENTATION_STYLE_ASSIGNMENT((#112));
#56=EDGE_CURVE('240[2]',#113,#113,#114,.T.);
#57=PRESENTATION_STYLE_ASSIGNMENT((#115));
#58=PRESENTATION_STYLE_ASSIGNMENT((#116));
#59=MANIFOLD_SOLID_BREP('240[2]',#117);
#60=PRESENTATION_STYLE_ASSIGNMENT((#118));
#61=EDGE_CURVE('240[2]',#119,#119,#120,.T.);
#62=PRODUCT('240[2]','240[2]','PART-240[2]-DESC',(#121));
#63=PRODUCT_DEFINITION('NONE','NONE',#122,#2);
#64=AXIS2_PLACEMENT_3D('',#123,#124,#125);
#67=LENGTH_MEASURE_WITH_UNIT(LENGTH_MEASURE(1.0),#126);
#70=DIMENSIONAL_EXPONENTS(1.0,0.0,0.0,0.0,0.0,0.0,0.0);
#72=DIMENSIONAL_EXPONENTS(0.0,0.0,0.0,0.0,0.0,0.0,0.0);
#78=SURFACE_STYLE_USAGE(.BOTH.,#127);
#79=CURVE_STYLE('',#128,POSITIVE_LENGTH_MEASURE(1000.0),#129);
#80=FACE_BOUND('',#130,.T.);
#81=FACE_BOUND('',#131,.T.);
#82=CYLINDRICAL_SURFACE('',#132,2.0);
#83=SURFACE_STYLE_USAGE(.BOTH.,#133);
#84=CURVE_STYLE('',#134,POSITIVE_LENGTH_MEASURE(1000.0),#135);
#85=FACE_BOUND('',#136,.T.);
#86=FACE_BOUND('',#137,.T.);
#87=CONICAL_SURFACE('',#138,4.84529946,0.52359877620608);
#88=SURFACE_STYLE_USAGE(.BOTH.,#139);
#89=CURVE_STYLE('',#140,POSITIVE_LENGTH_MEASURE(1000.0),#141);
#90=FACE_OUTER_BOUND('',#142,.T.);
#91=FACE_BOUND('',#143,.T.);
#92=PLANE('',#144);
#93=SURFACE_STYLE_USAGE(.BOTH.,#145);
#94=CURVE_STYLE('',#146,POSITIVE_LENGTH_MEASURE(1000.0),#147);
#95=FACE_BOUND('',#148,.T.);
#96=FACE_BOUND('',#149,.T.);
#97=CYLINDRICAL_SURFACE('',#150,6.0);
#98=CURVE_STYLE('',#151,POSITIVE_LENGTH_MEASURE(1000.0),#152);
#99=VERTEX_POINT('',#153);
#100=CIRCLE('',#154,6.0);
#101=CURVE_STYLE('',#155,POSITIVE_LENGTH_MEASURE(1000.0),#156);
#102=VERTEX_POINT('',#157);
#103=CIRCLE('',#158,2.0);
#104=SURFACE_STYLE_USAGE(.BOTH.,#159);
#105=CURVE_STYLE('',#160,POSITIVE_LENGTH_MEASURE(1000.0),#161);
#106=FACE_BOUND('',#162,.T.);
#107=FACE_OUTER_BOUND('',#163,.T.);
#108=PLANE('',#164);
#109=CURVE_STYLE('',#165,POSITIVE_LENGTH_MEASURE(1000.0),#166);
#110=VERTEX_POINT('',#167);
#111=CIRCLE('',#168,3.69059892);
#112=CURVE_STYLE('',#169,POSITIVE_LENGTH_MEASURE(1000.0),#170);
#113=VERTEX_POINT('',#171);
#114=CIRCLE('',#172,2.0);
#115=SURFACE_STYLE_USAGE(.BOTH.,#173);
#116=CURVE_STYLE('',#174,POSITIVE_LENGTH_MEASURE(1000.0),#175);
#117=CLOSED_SHELL('',(#42,#45,#39,#52,#36));
#118=CURVE_STYLE('',#176,POSITIVE_LENGTH_MEASURE(1000.0),#177);
#119=VERTEX_POINT('',#178);
#120=CIRCLE('',#179,6.0);
#121=PRODUCT_CONTEXT('',#21,'mechanical');
#122=PRODUCT_DEFINITION_FORMATION_WITH_SPECIFIED_SOURCE(' ','NONE',#62,.NOT_KNOWN.);
#123=CARTESIAN_POINT('',(0.0,0.0,0.0));
#124=DIRECTION('',(0.0,0.0,1.0));
#125=DIRECTION('',(1.0,0.0,0.0));
#126= (NAMED_UNIT(#70)LENGTH_UNIT()SI_UNIT(.MILLI.,.METRE.));
#127=SURFACE_SIDE_STYLE('',(#181));
#128=DRAUGHTING_PRE_DEFINED_CURVE_FONT('continuous');
#129=COLOUR_RGB('',0.501960813999176,0.501960813999176,0.501960813999176);
#130=EDGE_LOOP('',(#182));
#131=EDGE_LOOP('',(#183));
#132=AXIS2_PLACEMENT_3D('',#184,#185,#186);
#133=SURFACE_SIDE_STYLE('',(#187));
#134=DRAUGHTING_PRE_DEFINED_CURVE_FONT('continuous');
#135=COLOUR_RGB('',0.501960813999176,0.501960813999176,0.501960813999176);
#136=EDGE_LOOP('',(#188));
#137=EDGE_LOOP('',(#189));
#138=AXIS2_PLACEMENT_3D('',#190,#191,#192);
#139=SURFACE_SIDE_STYLE('',(#193));
#140=DRAUGHTING_PRE_DEFINED_CURVE_FONT('continuous');
#141=COLOUR_RGB('',0.501960813999176,0.501960813999176,0.501960813999176);
#142=EDGE_LOOP('',(#194));
#143=EDGE_LOOP('',(#195));
#144=AXIS2_PLACEMENT_3D('',#196,#197,#198);
#145=SURFACE_SIDE_STYLE('',(#199));
#146=DRAUGHTING_PRE_DEFINED_CURVE_FONT('continuous');
#147=COLOUR_RGB('',0.501960813999176,0.501960813999176,0.501960813999176);
#148=EDGE_LOOP('',(#200));
#149=EDGE_LOOP('',(#201));
#150=AXIS2_PLACEMENT_3D('',#202,#203,#204);
#151=DRAUGHTING_PRE_DEFINED_CURVE_FONT('continuous');
#152=COLOUR_RGB('',0.501960813999176,0.501960813999176,0.501960813999176);
#153=CARTESIAN_POINT('',(-5.20474889637625E-015,5.99999999999999,85.0));
#154=AXIS2_PLACEMENT_3D('',#205,#206,#207);
#155=DRAUGHTING_PRE_DEFINED_CURVE_FONT('continuous');
#156=COLOUR_RGB('',0.501960813999176,0.501960813999176,0.501960813999176);
#157=CARTESIAN_POINT('',(-5.20474889637625E-015,1.99999999999999,85.0));
#158=AXIS2_PLACEMENT_3D('',#208,#209,#210);
#159=SURFACE_SIDE_STYLE('',(#211));
#160=DRAUGHTING_PRE_DEFINED_CURVE_FONT('continuous');
#161=COLOUR_RGB('',0.501960813999176,0.501960813999176,0.501960813999176);
#162=EDGE_LOOP('',(#212));
#163=EDGE_LOOP('',(#213));
#164=AXIS2_PLACEMENT_3D('',#214,#215,#216);
#165=DRAUGHTING_PRE_DEFINED_CURVE_FONT('continuous');
#166=COLOUR_RGB('',0.501960813999176,0.501960813999176,0.501960813999176);
#167=CARTESIAN_POINT('',(0.0,3.69059892,0.0));
#168=AXIS2_PLACEMENT_3D('',#217,#218,#219);
#169=DRAUGHTING_PRE_DEFINED_CURVE_FONT('continuous');
#170=COLOUR_RGB('',0.501960813999176,0.501960813999176,0.501960813999176);
#171=CARTESIAN_POINT('',(0.0,2.0,0.0));
#172=AXIS2_PLACEMENT_3D('',#220,#221,#222);
#173=SURFACE_SIDE_STYLE('',(#223));
#174=DRAUGHTING_PRE_DEFINED_CURVE_FONT('continuous');
#175=COLOUR_RGB('',0.501960813999176,0.501960813999176,0.501960813999176);
#176=DRAUGHTING_PRE_DEFINED_CURVE_FONT('continuous');
#177=COLOUR_RGB('',0.501960813999176,0.501960813999176,0.501960813999176);
#178=CARTESIAN_POINT('',(-2.4492935982947E-016,6.0,4.0));
#179=AXIS2_PLACEMENT_3D('',#224,#225,#226);
#181=SURFACE_STYLE_FILL_AREA(#227);
#182=ORIENTED_EDGE('',*,*,#49,.F.);
#183=ORIENTED_EDGE('',*,*,#56,.T.);
#184=CARTESIAN_POINT('',(-2.60237444818813E-015,-5.20474889637625E-015,42.5));
#185=DIRECTION('',(6.12323399573677E-017,1.22464679914735E-016,-1.0));
#186=DIRECTION('',(-1.23259516440783E-032,1.0,1.22464679914735E-016));
#187=SURFACE_STYLE_FILL_AREA(#228);
#188=ORIENTED_EDGE('',*,*,#54,.F.);
#189=ORIENTED_EDGE('',*,*,#61,.T.);
#190=CARTESIAN_POINT('',(-1.22464679914735E-016,-2.4492935982947E-016,2.0));
#191=DIRECTION('',(-6.12323399573677E-017,-1.22464679914735E-016,1.0));
#192=DIRECTION('',(-1.23259516440783E-032,1.0,1.22464679914735E-016));
#193=SURFACE_STYLE_FILL_AREA(#229);
#194=ORIENTED_EDGE('',*,*,#47,.F.);
#195=ORIENTED_EDGE('',*,*,#49,.T.);
#196=CARTESIAN_POINT('',(-5.20474889637625E-015,3.99999999999999,85.0));
#197=DIRECTION('',(-6.12323399573677E-017,-1.22464679914735E-016,1.0));
#198=DIRECTION('',(1.23259516440783E-032,-1.0,-1.22464679914735E-016));
#199=SURFACE_STYLE_FILL_AREA(#230);
#200=ORIENTED_EDGE('',*,*,#61,.F.);
#201=ORIENTED_EDGE('',*,*,#47,.T.);
#202=CARTESIAN_POINT('',(-2.72483912810286E-015,-5.44967825620572E-015,44.5));
#203=DIRECTION('',(6.12323399573677E-017,1.22464679914735E-016,-1.0));
#204=DIRECTION('',(-1.23259516440783E-032,1.0,1.22464679914735E-016));
#205=CARTESIAN_POINT('',(-5.20474889637625E-015,-1.04094977927525E-014,85.0));
#206=DIRECTION('',(6.12323399573677E-017,1.22464679914735E-016,-1.0));
#207=DIRECTION('',(-1.23259516440783E-032,1.0,1.22464679914735E-016));
#208=CARTESIAN_POINT('',(-5.20474889637625E-015,-1.04094977927525E-014,85.0));
#209=DIRECTION('',(6.12323399573677E-017,1.22464679914735E-016,-1.0));
#210=DIRECTION('',(-1.23259516440783E-032,1.0,1.22464679914735E-016));
#211=SURFACE_STYLE_FILL_AREA(#231);
#212=ORIENTED_EDGE('',*,*,#56,.F.);
#213=ORIENTED_EDGE('',*,*,#54,.T.);
#214=CARTESIAN_POINT('',(0.0,2.84529946,0.0));
#215=DIRECTION('',(6.12323399573677E-017,1.22464679914735E-016,-1.0));
#216=DIRECTION('',(-1.23259516440783E-032,1.0,1.22464679914735E-016));
#217=CARTESIAN_POINT('',(0.0,0.0,0.0));
#218=DIRECTION('',(6.12323399573677E-017,1.22464679914735E-016,-1.0));
#219=DIRECTION('',(-1.23259516440783E-032,1.0,1.22464679914735E-016));
#220=CARTESIAN_POINT('',(0.0,0.0,0.0));
#221=DIRECTION('',(6.12323399573677E-017,1.22464679914735E-016,-1.0));
#222=DIRECTION('',(-1.23259516440783E-032,1.0,1.22464679914735E-016));
#223=SURFACE_STYLE_FILL_AREA(#232);
#224=CARTESIAN_POINT('',(-2.4492935982947E-016,-4.89858719658941E-016,4.0));
#225=DIRECTION('',(6.12323399573677E-017,1.22464679914735E-016,-1.0));
#226=DIRECTION('',(-1.23259516440783E-032,1.0,1.22464679914735E-016));
#227=FILL_AREA_STYLE('',(#233));
#228=FILL_AREA_STYLE('',(#234));
#229=FILL_AREA_STYLE('',(#235));
#230=FILL_AREA_STYLE('',(#236));
#231=FILL_AREA_STYLE('',(#237));
#232=FILL_AREA_STYLE('',(#238));
#233=FILL_AREA_STYLE_COLOUR('',#239);
#234=FILL_AREA_STYLE_COLOUR('',#240);
#235=FILL_AREA_STYLE_COLOUR('',#241);
#236=FILL_AREA_STYLE_COLOUR('',#242);
#237=FILL_AREA_STYLE_COLOUR('',#243);
#238=FILL_AREA_STYLE_COLOUR('',#244);
#239=COLOUR_RGB('',0.501960813999176,0.501960813999176,0.501960813999176);
#240=COLOUR_RGB('',0.501960813999176,0.501960813999176,0.501960813999176);
#241=COLOUR_RGB('',0.501960813999176,0.501960813999176,0.501960813999176);
#242=COLOUR_RGB('',0.501960813999176,0.501960813999176,0.501960813999176);
#243=COLOUR_RGB('',0.501960813999176,0.501960813999176,0.501960813999176);
#244=COLOUR_RGB('',0.501960813999176,0.501960813999176,0.501960813999176);
ENDSEC;
END-ISO-10303-21;
