ISO-10303-21;
HEADER;
FILE_DESCRIPTION((''),'1');
FILE_NAME('T:/02_3D_Field-HP\X2\FF71FF6FFF8CFF9F5916\X0\/02_Step_Field-HP\X2\FF71FF6FFF8CFF9F5916\X0\/21_CK\X2\FF8EFF9EFF70FF98FF9DFF78FF9EFF7CFF7DFF83FF91\X0\/08_\X2\FF7BFF72FF84FF9EFF9BFF6FFF784E38FF8AFF9EFF72FF84FF8EFF99FF80FF9E\X0\+\X2\4E38FF8AFF9EFF72FF84FF7CFF6CFF9DFF78\X0\/\X2\8FFD52A05206\X0\_20230904/ST12-SL4.5.stp','2023-09-04T00:22:08',(''),(''),'Spatial Interop R21 SP3','Kubotek KeyCreator 2011 V10.0.2 (22737)',' ');
FILE_SCHEMA(('automotive_design'));
ENDSEC;
DATA;
#1=MECHANICAL_DESIGN_GEOMETRIC_PRESENTATION_REPRESENTATION(' ',(#10,#11,#12,#13,#14,#15,#16,#17,#18,#19,#20),#6);
#2=PRODUCT_DEFINITION_CONTEXT('',#21,'design');
#3=APPLICATION_PROTOCOL_DEFINITION('INTERNATIONAL STANDARD','automotive_design',1994,#21);
#4=PRODUCT_CATEGORY_RELATIONSHIP('NONE','NONE',#22,#23);
#5=SHAPE_DEFINITION_REPRESENTATION(#24,#25);
#6= (GEOMETRIC_REPRESENTATION_CONTEXT(3)GLOBAL_UNCERTAINTY_ASSIGNED_CONTEXT((#28))GLOBAL_UNIT_ASSIGNED_CONTEXT((#30,#31,#32))REPRESENTATION_CONTEXT('NONE','WORKSPACE'));
#10=STYLED_ITEM('',(#34,#35),#36);
#11=STYLED_ITEM('',(#37,#38),#39);
#12=STYLED_ITEM('',(#40),#41);
#13=STYLED_ITEM('',(#42,#43),#44);
#14=STYLED_ITEM('',(#45),#46);
#15=STYLED_ITEM('',(#47,#48),#49);
#16=STYLED_ITEM('',(#50),#51);
#17=STYLED_ITEM('',(#52),#53);
#18=STYLED_ITEM('',(#54),#55);
#19=STYLED_ITEM('',(#56,#57),#58);
#20=STYLED_ITEM('',(#59,#60),#61);
#21=APPLICATION_CONTEXT(' ');
#22=PRODUCT_CATEGORY('part','NONE');
#23=PRODUCT_RELATED_PRODUCT_CATEGORY('detail',' ',(#62));
#24=PRODUCT_DEFINITION_SHAPE('NONE','NONE',#63);
#25=ADVANCED_BREP_SHAPE_REPRESENTATION('240[2]',(#44,#64),#6);
#28=UNCERTAINTY_MEASURE_WITH_UNIT(LENGTH_MEASURE(1.0E-006),#30,'','');
#30= (CONVERSION_BASED_UNIT('MILLIMETRE',#67)LENGTH_UNIT()NAMED_UNIT(#70));
#31= (NAMED_UNIT(#72)PLANE_ANGLE_UNIT()SI_UNIT($,.RADIAN.));
#32= (NAMED_UNIT(#72)SOLID_ANGLE_UNIT()SI_UNIT($,.STERADIAN.));
#34=PRESENTATION_STYLE_ASSIGNMENT((#78));
#35=PRESENTATION_STYLE_ASSIGNMENT((#79));
#36=ADVANCED_FACE('240[2]',(#80,#81),#82,.T.);
#37=PRESENTATION_STYLE_ASSIGNMENT((#83));
#38=PRESENTATION_STYLE_ASSIGNMENT((#84));
#39=ADVANCED_FACE('240[2]',(#85,#86),#87,.T.);
#40=PRESENTATION_STYLE_ASSIGNMENT((#88));
#41=EDGE_CURVE('240[2]',#89,#89,#90,.T.);
#42=PRESENTATION_STYLE_ASSIGNMENT((#91));
#43=PRESENTATION_STYLE_ASSIGNMENT((#92));
#44=MANIFOLD_SOLID_BREP('240[2]',#93);
#45=PRESENTATION_STYLE_ASSIGNMENT((#94));
#46=EDGE_CURVE('240[2]',#95,#95,#96,.T.);
#47=PRESENTATION_STYLE_ASSIGNMENT((#97));
#48=PRESENTATION_STYLE_ASSIGNMENT((#98));
#49=ADVANCED_FACE('240[2]',(#99,#100),#101,.T.);
#50=PRESENTATION_STYLE_ASSIGNMENT((#102));
#51=EDGE_CURVE('240[2]',#103,#103,#104,.T.);
#52=PRESENTATION_STYLE_ASSIGNMENT((#105));
#53=EDGE_CURVE('240[2]',#106,#106,#107,.T.);
#54=PRESENTATION_STYLE_ASSIGNMENT((#108));
#55=EDGE_CURVE('240[2]',#109,#109,#110,.T.);
#56=PRESENTATION_STYLE_ASSIGNMENT((#111));
#57=PRESENTATION_STYLE_ASSIGNMENT((#112));
#58=ADVANCED_FACE('240[2]',(#113,#114),#115,.F.);
#59=PRESENTATION_STYLE_ASSIGNMENT((#116));
#60=PRESENTATION_STYLE_ASSIGNMENT((#117));
#61=ADVANCED_FACE('240[2]',(#118,#119),#120,.T.);
#62=PRODUCT('240[2]','240[2]','PART-240[2]-DESC',(#121));
#63=PRODUCT_DEFINITION('NONE','NONE',#122,#2);
#64=AXIS2_PLACEMENT_3D('',#123,#124,#125);
#67=LENGTH_MEASURE_WITH_UNIT(LENGTH_MEASURE(1.0),#126);
#70=DIMENSIONAL_EXPONENTS(1.0,0.0,0.0,0.0,0.0,0.0,0.0);
#72=DIMENSIONAL_EXPONENTS(0.0,0.0,0.0,0.0,0.0,0.0,0.0);
#78=SURFACE_STYLE_USAGE(.BOTH.,#127);
#79=CURVE_STYLE('',#128,POSITIVE_LENGTH_MEASURE(1000.0),#129);
#80=FACE_BOUND('',#130,.T.);
#81=FACE_BOUND('',#131,.T.);
#82=CYLINDRICAL_SURFACE('',#132,6.0);
#83=SURFACE_STYLE_USAGE(.BOTH.,#133);
#84=CURVE_STYLE('',#134,POSITIVE_LENGTH_MEASURE(1000.0),#135);
#85=FACE_BOUND('',#136,.T.);
#86=FACE_OUTER_BOUND('',#137,.T.);
#87=PLANE('',#138);
#88=CURVE_STYLE('',#139,POSITIVE_LENGTH_MEASURE(1000.0),#140);
#89=VERTEX_POINT('',#141);
#90=CIRCLE('',#142,6.0);
#91=SURFACE_STYLE_USAGE(.BOTH.,#143);
#92=CURVE_STYLE('',#144,POSITIVE_LENGTH_MEASURE(1000.0),#145);
#93=CLOSED_SHELL('',(#61,#36,#49,#39,#58));
#94=CURVE_STYLE('',#146,POSITIVE_LENGTH_MEASURE(1000.0),#147);
#95=VERTEX_POINT('',#148);
#96=CIRCLE('',#149,2.25);
#97=SURFACE_STYLE_USAGE(.BOTH.,#150);
#98=CURVE_STYLE('',#151,POSITIVE_LENGTH_MEASURE(1000.0),#152);
#99=FACE_BOUND('',#153,.T.);
#100=FACE_BOUND('',#154,.T.);
#101=CONICAL_SURFACE('',#155,4.84529946,0.52359877620608);
#102=CURVE_STYLE('',#156,POSITIVE_LENGTH_MEASURE(1000.0),#157);
#103=VERTEX_POINT('',#158);
#104=CIRCLE('',#159,2.25);
#105=CURVE_STYLE('',#160,POSITIVE_LENGTH_MEASURE(1000.0),#161);
#106=VERTEX_POINT('',#162);
#107=CIRCLE('',#163,3.69059892);
#108=CURVE_STYLE('',#164,POSITIVE_LENGTH_MEASURE(1000.0),#165);
#109=VERTEX_POINT('',#166);
#110=CIRCLE('',#167,6.0);
#111=SURFACE_STYLE_USAGE(.BOTH.,#168);
#112=CURVE_STYLE('',#169,POSITIVE_LENGTH_MEASURE(1000.0),#170);
#113=FACE_BOUND('',#171,.T.);
#114=FACE_BOUND('',#172,.T.);
#115=CYLINDRICAL_SURFACE('',#173,2.25);
#116=SURFACE_STYLE_USAGE(.BOTH.,#174);
#117=CURVE_STYLE('',#175,POSITIVE_LENGTH_MEASURE(1000.0),#176);
#118=FACE_OUTER_BOUND('',#177,.T.);
#119=FACE_BOUND('',#178,.T.);
#120=PLANE('',#179);
#121=PRODUCT_CONTEXT('',#21,'mechanical');
#122=PRODUCT_DEFINITION_FORMATION_WITH_SPECIFIED_SOURCE(' ','NONE',#62,.NOT_KNOWN.);
#123=CARTESIAN_POINT('',(0.0,0.0,0.0));
#124=DIRECTION('',(0.0,0.0,1.0));
#125=DIRECTION('',(1.0,0.0,0.0));
#126= (NAMED_UNIT(#70)LENGTH_UNIT()SI_UNIT(.MILLI.,.METRE.));
#127=SURFACE_SIDE_STYLE('',(#181));
#128=DRAUGHTING_PRE_DEFINED_CURVE_FONT('continuous');
#129=COLOUR_RGB('',0.501960813999176,0.501960813999176,0.501960813999176);
#130=EDGE_LOOP('',(#182));
#131=EDGE_LOOP('',(#183));
#132=AXIS2_PLACEMENT_3D('',#184,#185,#186);
#133=SURFACE_SIDE_STYLE('',(#187));
#134=DRAUGHTING_PRE_DEFINED_CURVE_FONT('continuous');
#135=COLOUR_RGB('',0.501960813999176,0.501960813999176,0.501960813999176);
#136=EDGE_LOOP('',(#188));
#137=EDGE_LOOP('',(#189));
#138=AXIS2_PLACEMENT_3D('',#190,#191,#192);
#139=DRAUGHTING_PRE_DEFINED_CURVE_FONT('continuous');
#140=COLOUR_RGB('',0.501960813999176,0.501960813999176,0.501960813999176);
#141=CARTESIAN_POINT('',(-5.20474889637625E-015,5.99999999999999,85.0));
#142=AXIS2_PLACEMENT_3D('',#193,#194,#195);
#143=SURFACE_SIDE_STYLE('',(#196));
#144=DRAUGHTING_PRE_DEFINED_CURVE_FONT('continuous');
#145=COLOUR_RGB('',0.501960813999176,0.501960813999176,0.501960813999176);
#146=DRAUGHTING_PRE_DEFINED_CURVE_FONT('continuous');
#147=COLOUR_RGB('',0.501960813999176,0.501960813999176,0.501960813999176);
#148=CARTESIAN_POINT('',(-5.20474889637625E-015,2.24999999999999,85.0));
#149=AXIS2_PLACEMENT_3D('',#197,#198,#199);
#150=SURFACE_SIDE_STYLE('',(#200));
#151=DRAUGHTING_PRE_DEFINED_CURVE_FONT('continuous');
#152=COLOUR_RGB('',0.501960813999176,0.501960813999176,0.501960813999176);
#153=EDGE_LOOP('',(#201));
#154=EDGE_LOOP('',(#202));
#155=AXIS2_PLACEMENT_3D('',#203,#204,#205);
#156=DRAUGHTING_PRE_DEFINED_CURVE_FONT('continuous');
#157=COLOUR_RGB('',0.501960813999176,0.501960813999176,0.501960813999176);
#158=CARTESIAN_POINT('',(0.0,2.25,0.0));
#159=AXIS2_PLACEMENT_3D('',#206,#207,#208);
#160=DRAUGHTING_PRE_DEFINED_CURVE_FONT('continuous');
#161=COLOUR_RGB('',0.501960813999176,0.501960813999176,0.501960813999176);
#162=CARTESIAN_POINT('',(0.0,3.69059892,0.0));
#163=AXIS2_PLACEMENT_3D('',#209,#210,#211);
#164=DRAUGHTING_PRE_DEFINED_CURVE_FONT('continuous');
#165=COLOUR_RGB('',0.501960813999176,0.501960813999176,0.501960813999176);
#166=CARTESIAN_POINT('',(-2.4492935982947E-016,6.0,4.0));
#167=AXIS2_PLACEMENT_3D('',#212,#213,#214);
#168=SURFACE_SIDE_STYLE('',(#215));
#169=DRAUGHTING_PRE_DEFINED_CURVE_FONT('continuous');
#170=COLOUR_RGB('',0.501960813999176,0.501960813999176,0.501960813999176);
#171=EDGE_LOOP('',(#216));
#172=EDGE_LOOP('',(#217));
#173=AXIS2_PLACEMENT_3D('',#218,#219,#220);
#174=SURFACE_SIDE_STYLE('',(#221));
#175=DRAUGHTING_PRE_DEFINED_CURVE_FONT('continuous');
#176=COLOUR_RGB('',0.501960813999176,0.501960813999176,0.501960813999176);
#177=EDGE_LOOP('',(#222));
#178=EDGE_LOOP('',(#223));
#179=AXIS2_PLACEMENT_3D('',#224,#225,#226);
#181=SURFACE_STYLE_FILL_AREA(#227);
#182=ORIENTED_EDGE('',*,*,#55,.F.);
#183=ORIENTED_EDGE('',*,*,#41,.T.);
#184=CARTESIAN_POINT('',(-2.72483912810286E-015,-5.44967825620572E-015,44.5));
#185=DIRECTION('',(6.12323399573677E-017,1.22464679914735E-016,-1.0));
#186=DIRECTION('',(-1.23259516440783E-032,1.0,1.22464679914735E-016));
#187=SURFACE_STYLE_FILL_AREA(#228);
#188=ORIENTED_EDGE('',*,*,#51,.F.);
#189=ORIENTED_EDGE('',*,*,#53,.T.);
#190=CARTESIAN_POINT('',(0.0,2.97029946,0.0));
#191=DIRECTION('',(6.12323399573677E-017,1.22464679914735E-016,-1.0));
#192=DIRECTION('',(-1.23259516440783E-032,1.0,1.22464679914735E-016));
#193=CARTESIAN_POINT('',(-5.20474889637625E-015,-1.04094977927525E-014,85.0));
#194=DIRECTION('',(6.12323399573677E-017,1.22464679914735E-016,-1.0));
#195=DIRECTION('',(-1.23259516440783E-032,1.0,1.22464679914735E-016));
#196=SURFACE_STYLE_FILL_AREA(#229);
#197=CARTESIAN_POINT('',(-5.20474889637625E-015,-1.04094977927525E-014,85.0));
#198=DIRECTION('',(6.12323399573677E-017,1.22464679914735E-016,-1.0));
#199=DIRECTION('',(-1.23259516440783E-032,1.0,1.22464679914735E-016));
#200=SURFACE_STYLE_FILL_AREA(#230);
#201=ORIENTED_EDGE('',*,*,#53,.F.);
#202=ORIENTED_EDGE('',*,*,#55,.T.);
#203=CARTESIAN_POINT('',(-1.22464679914735E-016,-2.4492935982947E-016,2.0));
#204=DIRECTION('',(-6.12323399573677E-017,-1.22464679914735E-016,1.0));
#205=DIRECTION('',(-1.23259516440783E-032,1.0,1.22464679914735E-016));
#206=CARTESIAN_POINT('',(0.0,0.0,0.0));
#207=DIRECTION('',(6.12323399573677E-017,1.22464679914735E-016,-1.0));
#208=DIRECTION('',(-1.23259516440783E-032,1.0,1.22464679914735E-016));
#209=CARTESIAN_POINT('',(0.0,0.0,0.0));
#210=DIRECTION('',(6.12323399573677E-017,1.22464679914735E-016,-1.0));
#211=DIRECTION('',(-1.23259516440783E-032,1.0,1.22464679914735E-016));
#212=CARTESIAN_POINT('',(-2.4492935982947E-016,-4.89858719658941E-016,4.0));
#213=DIRECTION('',(6.12323399573677E-017,1.22464679914735E-016,-1.0));
#214=DIRECTION('',(-1.23259516440783E-032,1.0,1.22464679914735E-016));
#215=SURFACE_STYLE_FILL_AREA(#231);
#216=ORIENTED_EDGE('',*,*,#46,.F.);
#217=ORIENTED_EDGE('',*,*,#51,.T.);
#218=CARTESIAN_POINT('',(-2.60237444818813E-015,-5.20474889637625E-015,42.5));
#219=DIRECTION('',(6.12323399573677E-017,1.22464679914735E-016,-1.0));
#220=DIRECTION('',(-1.23259516440783E-032,1.0,1.22464679914735E-016));
#221=SURFACE_STYLE_FILL_AREA(#232);
#222=ORIENTED_EDGE('',*,*,#41,.F.);
#223=ORIENTED_EDGE('',*,*,#46,.T.);
#224=CARTESIAN_POINT('',(-5.20474889637625E-015,4.12499999999999,85.0));
#225=DIRECTION('',(-6.12323399573677E-017,-1.22464679914735E-016,1.0));
#226=DIRECTION('',(1.23259516440783E-032,-1.0,-1.22464679914735E-016));
#227=FILL_AREA_STYLE('',(#233));
#228=FILL_AREA_STYLE('',(#234));
#229=FILL_AREA_STYLE('',(#235));
#230=FILL_AREA_STYLE('',(#236));
#231=FILL_AREA_STYLE('',(#237));
#232=FILL_AREA_STYLE('',(#238));
#233=FILL_AREA_STYLE_COLOUR('',#239);
#234=FILL_AREA_STYLE_COLOUR('',#240);
#235=FILL_AREA_STYLE_COLOUR('',#241);
#236=FILL_AREA_STYLE_COLOUR('',#242);
#237=FILL_AREA_STYLE_COLOUR('',#243);
#238=FILL_AREA_STYLE_COLOUR('',#244);
#239=COLOUR_RGB('',0.501960813999176,0.501960813999176,0.501960813999176);
#240=COLOUR_RGB('',0.501960813999176,0.501960813999176,0.501960813999176);
#241=COLOUR_RGB('',0.501960813999176,0.501960813999176,0.501960813999176);
#242=COLOUR_RGB('',0.501960813999176,0.501960813999176,0.501960813999176);
#243=COLOUR_RGB('',0.501960813999176,0.501960813999176,0.501960813999176);
#244=COLOUR_RGB('',0.501960813999176,0.501960813999176,0.501960813999176);
ENDSEC;
END-ISO-10303-21;
