ISO-10303-21;
HEADER;
FILE_DESCRIPTION((''),'1');
FILE_NAME('T:/02_3D_Field-HP\X2\FF71FF6FFF8CFF9F5916\X0\/02_Step_Field-HP\X2\FF71FF6FFF8CFF9F5916\X0\/21_CK\X2\FF8EFF9EFF70FF98FF9DFF78FF9EFF7CFF7DFF83FF91\X0\/08_\X2\FF7BFF72FF84FF9EFF9BFF6FFF784E38FF8AFF9EFF72FF84FF8EFF99FF80FF9E\X0\+\X2\4E38FF8AFF9EFF72FF84FF7CFF6CFF9DFF78\X0\/\X2\8FFD52A05206\X0\_20230904/ST12-SL3.5.stp','2023-09-04T00:13:24',(''),(''),'Spatial Interop R21 SP3','Kubotek KeyCreator 2011 V10.0.2 (22737)',' ');
FILE_SCHEMA(('automotive_design'));
ENDSEC;
DATA;
#1=MECHANICAL_DESIGN_GEOMETRIC_PRESENTATION_REPRESENTATION(' ',(#10,#11,#12,#13,#14,#15,#16,#17,#18,#19,#20),#6);
#2=PRODUCT_DEFINITION_CONTEXT('',#21,'design');
#3=APPLICATION_PROTOCOL_DEFINITION('INTERNATIONAL STANDARD','automotive_design',1994,#21);
#4=PRODUCT_CATEGORY_RELATIONSHIP('NONE','NONE',#22,#23);
#5=SHAPE_DEFINITION_REPRESENTATION(#24,#25);
#6= (GEOMETRIC_REPRESENTATION_CONTEXT(3)GLOBAL_UNCERTAINTY_ASSIGNED_CONTEXT((#28))GLOBAL_UNIT_ASSIGNED_CONTEXT((#30,#31,#32))REPRESENTATION_CONTEXT('NONE','WORKSPACE'));
#10=STYLED_ITEM('',(#34),#35);
#11=STYLED_ITEM('',(#36),#37);
#12=STYLED_ITEM('',(#38,#39),#40);
#13=STYLED_ITEM('',(#41),#42);
#14=STYLED_ITEM('',(#43,#44),#45);
#15=STYLED_ITEM('',(#46),#47);
#16=STYLED_ITEM('',(#48,#49),#50);
#17=STYLED_ITEM('',(#51),#52);
#18=STYLED_ITEM('',(#53,#54),#55);
#19=STYLED_ITEM('',(#56,#57),#58);
#20=STYLED_ITEM('',(#59,#60),#61);
#21=APPLICATION_CONTEXT(' ');
#22=PRODUCT_CATEGORY('part','NONE');
#23=PRODUCT_RELATED_PRODUCT_CATEGORY('detail',' ',(#62));
#24=PRODUCT_DEFINITION_SHAPE('NONE','NONE',#63);
#25=ADVANCED_BREP_SHAPE_REPRESENTATION('240[2]',(#45,#64),#6);
#28=UNCERTAINTY_MEASURE_WITH_UNIT(LENGTH_MEASURE(1.0E-006),#30,'','');
#30= (CONVERSION_BASED_UNIT('MILLIMETRE',#67)LENGTH_UNIT()NAMED_UNIT(#70));
#31= (NAMED_UNIT(#72)PLANE_ANGLE_UNIT()SI_UNIT($,.RADIAN.));
#32= (NAMED_UNIT(#72)SOLID_ANGLE_UNIT()SI_UNIT($,.STERADIAN.));
#34=PRESENTATION_STYLE_ASSIGNMENT((#78));
#35=EDGE_CURVE('240[2]',#79,#79,#80,.T.);
#36=PRESENTATION_STYLE_ASSIGNMENT((#81));
#37=EDGE_CURVE('240[2]',#82,#82,#83,.T.);
#38=PRESENTATION_STYLE_ASSIGNMENT((#84));
#39=PRESENTATION_STYLE_ASSIGNMENT((#85));
#40=ADVANCED_FACE('240[2]',(#86,#87),#88,.T.);
#41=PRESENTATION_STYLE_ASSIGNMENT((#89));
#42=EDGE_CURVE('240[2]',#90,#90,#91,.T.);
#43=PRESENTATION_STYLE_ASSIGNMENT((#92));
#44=PRESENTATION_STYLE_ASSIGNMENT((#93));
#45=MANIFOLD_SOLID_BREP('240[2]',#94);
#46=PRESENTATION_STYLE_ASSIGNMENT((#95));
#47=EDGE_CURVE('240[2]',#96,#96,#97,.T.);
#48=PRESENTATION_STYLE_ASSIGNMENT((#98));
#49=PRESENTATION_STYLE_ASSIGNMENT((#99));
#50=ADVANCED_FACE('240[2]',(#100,#101),#102,.F.);
#51=PRESENTATION_STYLE_ASSIGNMENT((#103));
#52=EDGE_CURVE('240[2]',#104,#104,#105,.T.);
#53=PRESENTATION_STYLE_ASSIGNMENT((#106));
#54=PRESENTATION_STYLE_ASSIGNMENT((#107));
#55=ADVANCED_FACE('240[2]',(#108,#109),#110,.T.);
#56=PRESENTATION_STYLE_ASSIGNMENT((#111));
#57=PRESENTATION_STYLE_ASSIGNMENT((#112));
#58=ADVANCED_FACE('240[2]',(#113,#114),#115,.T.);
#59=PRESENTATION_STYLE_ASSIGNMENT((#116));
#60=PRESENTATION_STYLE_ASSIGNMENT((#117));
#61=ADVANCED_FACE('240[2]',(#118,#119),#120,.T.);
#62=PRODUCT('240[2]','240[2]','PART-240[2]-DESC',(#121));
#63=PRODUCT_DEFINITION('NONE','NONE',#122,#2);
#64=AXIS2_PLACEMENT_3D('',#123,#124,#125);
#67=LENGTH_MEASURE_WITH_UNIT(LENGTH_MEASURE(1.0),#126);
#70=DIMENSIONAL_EXPONENTS(1.0,0.0,0.0,0.0,0.0,0.0,0.0);
#72=DIMENSIONAL_EXPONENTS(0.0,0.0,0.0,0.0,0.0,0.0,0.0);
#78=CURVE_STYLE('',#127,POSITIVE_LENGTH_MEASURE(1000.0),#128);
#79=VERTEX_POINT('',#129);
#80=CIRCLE('',#130,3.69059892);
#81=CURVE_STYLE('',#131,POSITIVE_LENGTH_MEASURE(1000.0),#132);
#82=VERTEX_POINT('',#133);
#83=CIRCLE('',#134,6.0);
#84=SURFACE_STYLE_USAGE(.BOTH.,#135);
#85=CURVE_STYLE('',#136,POSITIVE_LENGTH_MEASURE(1000.0),#137);
#86=FACE_OUTER_BOUND('',#138,.T.);
#87=FACE_BOUND('',#139,.T.);
#88=PLANE('',#140);
#89=CURVE_STYLE('',#141,POSITIVE_LENGTH_MEASURE(1000.0),#142);
#90=VERTEX_POINT('',#143);
#91=CIRCLE('',#144,1.75);
#92=SURFACE_STYLE_USAGE(.BOTH.,#145);
#93=CURVE_STYLE('',#146,POSITIVE_LENGTH_MEASURE(1000.0),#147);
#94=CLOSED_SHELL('',(#40,#55,#61,#58,#50));
#95=CURVE_STYLE('',#148,POSITIVE_LENGTH_MEASURE(1000.0),#149);
#96=VERTEX_POINT('',#150);
#97=CIRCLE('',#151,6.0);
#98=SURFACE_STYLE_USAGE(.BOTH.,#152);
#99=CURVE_STYLE('',#153,POSITIVE_LENGTH_MEASURE(1000.0),#154);
#100=FACE_BOUND('',#155,.T.);
#101=FACE_BOUND('',#156,.T.);
#102=CYLINDRICAL_SURFACE('',#157,1.75);
#103=CURVE_STYLE('',#158,POSITIVE_LENGTH_MEASURE(1000.0),#159);
#104=VERTEX_POINT('',#160);
#105=CIRCLE('',#161,1.75);
#106=SURFACE_STYLE_USAGE(.BOTH.,#162);
#107=CURVE_STYLE('',#163,POSITIVE_LENGTH_MEASURE(1000.0),#164);
#108=FACE_BOUND('',#165,.T.);
#109=FACE_BOUND('',#166,.T.);
#110=CYLINDRICAL_SURFACE('',#167,6.0);
#111=SURFACE_STYLE_USAGE(.BOTH.,#168);
#112=CURVE_STYLE('',#169,POSITIVE_LENGTH_MEASURE(1000.0),#170);
#113=FACE_BOUND('',#171,.T.);
#114=FACE_OUTER_BOUND('',#172,.T.);
#115=PLANE('',#173);
#116=SURFACE_STYLE_USAGE(.BOTH.,#174);
#117=CURVE_STYLE('',#175,POSITIVE_LENGTH_MEASURE(1000.0),#176);
#118=FACE_BOUND('',#177,.T.);
#119=FACE_BOUND('',#178,.T.);
#120=CONICAL_SURFACE('',#179,4.84529946,0.52359877620608);
#121=PRODUCT_CONTEXT('',#21,'mechanical');
#122=PRODUCT_DEFINITION_FORMATION_WITH_SPECIFIED_SOURCE(' ','NONE',#62,.NOT_KNOWN.);
#123=CARTESIAN_POINT('',(0.0,0.0,0.0));
#124=DIRECTION('',(0.0,0.0,1.0));
#125=DIRECTION('',(1.0,0.0,0.0));
#126= (NAMED_UNIT(#70)LENGTH_UNIT()SI_UNIT(.MILLI.,.METRE.));
#127=DRAUGHTING_PRE_DEFINED_CURVE_FONT('continuous');
#128=COLOUR_RGB('',0.501960813999176,0.501960813999176,0.501960813999176);
#129=CARTESIAN_POINT('',(0.0,3.69059892,0.0));
#130=AXIS2_PLACEMENT_3D('',#181,#182,#183);
#131=DRAUGHTING_PRE_DEFINED_CURVE_FONT('continuous');
#132=COLOUR_RGB('',0.501960813999176,0.501960813999176,0.501960813999176);
#133=CARTESIAN_POINT('',(-2.4492935982947E-016,6.0,4.0));
#134=AXIS2_PLACEMENT_3D('',#184,#185,#186);
#135=SURFACE_SIDE_STYLE('',(#187));
#136=DRAUGHTING_PRE_DEFINED_CURVE_FONT('continuous');
#137=COLOUR_RGB('',0.501960813999176,0.501960813999176,0.501960813999176);
#138=EDGE_LOOP('',(#188));
#139=EDGE_LOOP('',(#189));
#140=AXIS2_PLACEMENT_3D('',#190,#191,#192);
#141=DRAUGHTING_PRE_DEFINED_CURVE_FONT('continuous');
#142=COLOUR_RGB('',0.501960813999176,0.501960813999176,0.501960813999176);
#143=CARTESIAN_POINT('',(0.0,1.75,0.0));
#144=AXIS2_PLACEMENT_3D('',#193,#194,#195);
#145=SURFACE_SIDE_STYLE('',(#196));
#146=DRAUGHTING_PRE_DEFINED_CURVE_FONT('continuous');
#147=COLOUR_RGB('',0.501960813999176,0.501960813999176,0.501960813999176);
#148=DRAUGHTING_PRE_DEFINED_CURVE_FONT('continuous');
#149=COLOUR_RGB('',0.501960813999176,0.501960813999176,0.501960813999176);
#150=CARTESIAN_POINT('',(-5.20474889637625E-015,5.99999999999999,85.0));
#151=AXIS2_PLACEMENT_3D('',#197,#198,#199);
#152=SURFACE_SIDE_STYLE('',(#200));
#153=DRAUGHTING_PRE_DEFINED_CURVE_FONT('continuous');
#154=COLOUR_RGB('',0.501960813999176,0.501960813999176,0.501960813999176);
#155=EDGE_LOOP('',(#201));
#156=EDGE_LOOP('',(#202));
#157=AXIS2_PLACEMENT_3D('',#203,#204,#205);
#158=DRAUGHTING_PRE_DEFINED_CURVE_FONT('continuous');
#159=COLOUR_RGB('',0.501960813999176,0.501960813999176,0.501960813999176);
#160=CARTESIAN_POINT('',(-5.20474889637625E-015,1.74999999999999,85.0));
#161=AXIS2_PLACEMENT_3D('',#206,#207,#208);
#162=SURFACE_SIDE_STYLE('',(#209));
#163=DRAUGHTING_PRE_DEFINED_CURVE_FONT('continuous');
#164=COLOUR_RGB('',0.501960813999176,0.501960813999176,0.501960813999176);
#165=EDGE_LOOP('',(#210));
#166=EDGE_LOOP('',(#211));
#167=AXIS2_PLACEMENT_3D('',#212,#213,#214);
#168=SURFACE_SIDE_STYLE('',(#215));
#169=DRAUGHTING_PRE_DEFINED_CURVE_FONT('continuous');
#170=COLOUR_RGB('',0.501960813999176,0.501960813999176,0.501960813999176);
#171=EDGE_LOOP('',(#216));
#172=EDGE_LOOP('',(#217));
#173=AXIS2_PLACEMENT_3D('',#218,#219,#220);
#174=SURFACE_SIDE_STYLE('',(#221));
#175=DRAUGHTING_PRE_DEFINED_CURVE_FONT('continuous');
#176=COLOUR_RGB('',0.501960813999176,0.501960813999176,0.501960813999176);
#177=EDGE_LOOP('',(#222));
#178=EDGE_LOOP('',(#223));
#179=AXIS2_PLACEMENT_3D('',#224,#225,#226);
#181=CARTESIAN_POINT('',(0.0,0.0,0.0));
#182=DIRECTION('',(6.12323399573677E-017,1.22464679914735E-016,-1.0));
#183=DIRECTION('',(-1.23259516440783E-032,1.0,1.22464679914735E-016));
#184=CARTESIAN_POINT('',(-2.4492935982947E-016,-4.89858719658941E-016,4.0));
#185=DIRECTION('',(6.12323399573677E-017,1.22464679914735E-016,-1.0));
#186=DIRECTION('',(-1.23259516440783E-032,1.0,1.22464679914735E-016));
#187=SURFACE_STYLE_FILL_AREA(#227);
#188=ORIENTED_EDGE('',*,*,#47,.F.);
#189=ORIENTED_EDGE('',*,*,#52,.T.);
#190=CARTESIAN_POINT('',(-5.20474889637625E-015,3.87499999999999,85.0));
#191=DIRECTION('',(-6.12323399573677E-017,-1.22464679914735E-016,1.0));
#192=DIRECTION('',(1.23259516440783E-032,-1.0,-1.22464679914735E-016));
#193=CARTESIAN_POINT('',(0.0,0.0,0.0));
#194=DIRECTION('',(6.12323399573676E-017,1.22464679914735E-016,-1.0));
#195=DIRECTION('',(-1.23259516440783E-032,1.0,1.22464679914735E-016));
#196=SURFACE_STYLE_FILL_AREA(#228);
#197=CARTESIAN_POINT('',(-5.20474889637625E-015,-1.04094977927525E-014,85.0));
#198=DIRECTION('',(6.12323399573677E-017,1.22464679914735E-016,-1.0));
#199=DIRECTION('',(-1.23259516440783E-032,1.0,1.22464679914735E-016));
#200=SURFACE_STYLE_FILL_AREA(#229);
#201=ORIENTED_EDGE('',*,*,#52,.F.);
#202=ORIENTED_EDGE('',*,*,#42,.T.);
#203=CARTESIAN_POINT('',(-2.60237444818813E-015,-5.20474889637625E-015,42.5));
#204=DIRECTION('',(6.12323399573677E-017,1.22464679914735E-016,-1.0));
#205=DIRECTION('',(-1.23259516440783E-032,1.0,1.22464679914735E-016));
#206=CARTESIAN_POINT('',(-5.20474889637625E-015,-1.04094977927525E-014,85.0));
#207=DIRECTION('',(6.12323399573677E-017,1.22464679914735E-016,-1.0));
#208=DIRECTION('',(-1.23259516440783E-032,1.0,1.22464679914735E-016));
#209=SURFACE_STYLE_FILL_AREA(#230);
#210=ORIENTED_EDGE('',*,*,#37,.F.);
#211=ORIENTED_EDGE('',*,*,#47,.T.);
#212=CARTESIAN_POINT('',(-2.72483912810286E-015,-5.44967825620572E-015,44.5));
#213=DIRECTION('',(6.12323399573677E-017,1.22464679914735E-016,-1.0));
#214=DIRECTION('',(-1.23259516440783E-032,1.0,1.22464679914735E-016));
#215=SURFACE_STYLE_FILL_AREA(#231);
#216=ORIENTED_EDGE('',*,*,#42,.F.);
#217=ORIENTED_EDGE('',*,*,#35,.T.);
#218=CARTESIAN_POINT('',(0.0,2.72029946,0.0));
#219=DIRECTION('',(6.12323399573677E-017,1.22464679914735E-016,-1.0));
#220=DIRECTION('',(-1.23259516440783E-032,1.0,1.22464679914735E-016));
#221=SURFACE_STYLE_FILL_AREA(#232);
#222=ORIENTED_EDGE('',*,*,#35,.F.);
#223=ORIENTED_EDGE('',*,*,#37,.T.);
#224=CARTESIAN_POINT('',(-1.22464679914735E-016,-2.4492935982947E-016,2.0));
#225=DIRECTION('',(-6.12323399573677E-017,-1.22464679914735E-016,1.0));
#226=DIRECTION('',(-1.23259516440783E-032,1.0,1.22464679914735E-016));
#227=FILL_AREA_STYLE('',(#233));
#228=FILL_AREA_STYLE('',(#234));
#229=FILL_AREA_STYLE('',(#235));
#230=FILL_AREA_STYLE('',(#236));
#231=FILL_AREA_STYLE('',(#237));
#232=FILL_AREA_STYLE('',(#238));
#233=FILL_AREA_STYLE_COLOUR('',#239);
#234=FILL_AREA_STYLE_COLOUR('',#240);
#235=FILL_AREA_STYLE_COLOUR('',#241);
#236=FILL_AREA_STYLE_COLOUR('',#242);
#237=FILL_AREA_STYLE_COLOUR('',#243);
#238=FILL_AREA_STYLE_COLOUR('',#244);
#239=COLOUR_RGB('',0.501960813999176,0.501960813999176,0.501960813999176);
#240=COLOUR_RGB('',0.501960813999176,0.501960813999176,0.501960813999176);
#241=COLOUR_RGB('',0.501960813999176,0.501960813999176,0.501960813999176);
#242=COLOUR_RGB('',0.501960813999176,0.501960813999176,0.501960813999176);
#243=COLOUR_RGB('',0.501960813999176,0.501960813999176,0.501960813999176);
#244=COLOUR_RGB('',0.501960813999176,0.501960813999176,0.501960813999176);
ENDSEC;
END-ISO-10303-21;
