ISO-10303-21;
HEADER;
FILE_DESCRIPTION((''),'1');
FILE_NAME('T:/00_BIG-HP\X2\FF71FF6FFF8CFF9F\X0\/2022_\X2\30C030A630F330ED30FC30C930C730FC30BF\X0\/02_STEP\X2\FF83FF9EFF70FF80\X0\/LINK\X2\7528FF83FF9EFF70FF80FF8EFF99FF80FF9E\X0\/CK\X2\FF8DFF6FFF84FF9E30FBFF71FF78FF7EFF7BFF98\X0\/10_\X2\4ED54E0A305275284E38FF8AFF9EFF72FF84FF7CFF98FF70FF7DFF9E\X0\/02_\X2\4E38FF8AFF9EFF72FF84FF7CFF6CFF9DFF78\X0\/\X2\5C5E6027590966F4\X0\/ST12-M10-65.stp','2022-09-05T02:44:16',(''),(''),'Spatial Interop R21 SP3','Kubotek KeyCreator 2011 V10.0.2 (22737)',' ');
FILE_SCHEMA(('automotive_design'));
ENDSEC;
DATA;
#1=MECHANICAL_DESIGN_GEOMETRIC_PRESENTATION_REPRESENTATION(' ',(#10,#11,#12,#13,#14,#15,#16,#17,#18,#19),#6);
#2=PRODUCT_DEFINITION_CONTEXT('',#20,'design');
#3=APPLICATION_PROTOCOL_DEFINITION('INTERNATIONAL STANDARD','automotive_design',1994,#20);
#4=PRODUCT_CATEGORY_RELATIONSHIP('NONE','NONE',#21,#22);
#5=SHAPE_DEFINITION_REPRESENTATION(#23,#24);
#6= (GEOMETRIC_REPRESENTATION_CONTEXT(3)GLOBAL_UNCERTAINTY_ASSIGNED_CONTEXT((#27))GLOBAL_UNIT_ASSIGNED_CONTEXT((#29,#30,#31))REPRESENTATION_CONTEXT('NONE','WORKSPACE'));
#10=STYLED_ITEM('',(#33,#34),#35);
#11=STYLED_ITEM('',(#36,#37),#38);
#12=STYLED_ITEM('',(#39),#40);
#13=STYLED_ITEM('',(#41),#42);
#14=STYLED_ITEM('',(#43,#44),#45);
#15=STYLED_ITEM('',(#46),#47);
#16=STYLED_ITEM('',(#48,#49),#50);
#17=STYLED_ITEM('',(#51,#52),#53);
#18=STYLED_ITEM('',(#54,#55),#56);
#19=STYLED_ITEM('',(#57),#58);
#20=APPLICATION_CONTEXT(' ');
#21=PRODUCT_CATEGORY('part','NONE');
#22=PRODUCT_RELATED_PRODUCT_CATEGORY('detail',' ',(#59));
#23=PRODUCT_DEFINITION_SHAPE('NONE','NONE',#60);
#24=ADVANCED_BREP_SHAPE_REPRESENTATION('240[2]',(#35,#61),#6);
#27=UNCERTAINTY_MEASURE_WITH_UNIT(LENGTH_MEASURE(1.0E-006),#29,'','');
#29= (CONVERSION_BASED_UNIT('MILLIMETRE',#64)LENGTH_UNIT()NAMED_UNIT(#67));
#30= (NAMED_UNIT(#69)PLANE_ANGLE_UNIT()SI_UNIT($,.RADIAN.));
#31= (NAMED_UNIT(#69)SOLID_ANGLE_UNIT()SI_UNIT($,.STERADIAN.));
#33=PRESENTATION_STYLE_ASSIGNMENT((#75));
#34=PRESENTATION_STYLE_ASSIGNMENT((#76));
#35=MANIFOLD_SOLID_BREP('240[2]',#77);
#36=PRESENTATION_STYLE_ASSIGNMENT((#78));
#37=PRESENTATION_STYLE_ASSIGNMENT((#79));
#38=ADVANCED_FACE('240[2]',(#80),#81,.T.);
#39=PRESENTATION_STYLE_ASSIGNMENT((#82));
#40=EDGE_CURVE('240[2]',#83,#83,#84,.T.);
#41=PRESENTATION_STYLE_ASSIGNMENT((#85));
#42=EDGE_CURVE('240[2]',#86,#86,#87,.T.);
#43=PRESENTATION_STYLE_ASSIGNMENT((#88));
#44=PRESENTATION_STYLE_ASSIGNMENT((#89));
#45=ADVANCED_FACE('240[2]',(#90,#91),#92,.T.);
#46=PRESENTATION_STYLE_ASSIGNMENT((#93));
#47=EDGE_CURVE('240[2]',#94,#94,#95,.T.);
#48=PRESENTATION_STYLE_ASSIGNMENT((#96));
#49=PRESENTATION_STYLE_ASSIGNMENT((#97));
#50=ADVANCED_FACE('240[2]',(#98,#99),#100,.T.);
#51=PRESENTATION_STYLE_ASSIGNMENT((#101));
#52=PRESENTATION_STYLE_ASSIGNMENT((#102));
#53=ADVANCED_FACE('240[2]',(#103),#104,.T.);
#54=PRESENTATION_STYLE_ASSIGNMENT((#105));
#55=PRESENTATION_STYLE_ASSIGNMENT((#106));
#56=ADVANCED_FACE('240[2]',(#107,#108),#109,.T.);
#57=PRESENTATION_STYLE_ASSIGNMENT((#110));
#58=EDGE_CURVE('240[2]',#111,#111,#112,.T.);
#59=PRODUCT('240[2]','240[2]','PART-240[2]-DESC',(#113));
#60=PRODUCT_DEFINITION('NONE','NONE',#114,#2);
#61=AXIS2_PLACEMENT_3D('',#115,#116,#117);
#64=LENGTH_MEASURE_WITH_UNIT(LENGTH_MEASURE(1.0),#118);
#67=DIMENSIONAL_EXPONENTS(1.0,0.0,0.0,0.0,0.0,0.0,0.0);
#69=DIMENSIONAL_EXPONENTS(0.0,0.0,0.0,0.0,0.0,0.0,0.0);
#75=SURFACE_STYLE_USAGE(.BOTH.,#119);
#76=CURVE_STYLE('',#120,POSITIVE_LENGTH_MEASURE(1000.0),#121);
#77=CLOSED_SHELL('',(#38,#50,#56,#45,#53));
#78=SURFACE_STYLE_USAGE(.BOTH.,#122);
#79=CURVE_STYLE('',#123,POSITIVE_LENGTH_MEASURE(1000.0),#124);
#80=FACE_OUTER_BOUND('',#125,.T.);
#81=PLANE('',#126);
#82=CURVE_STYLE('',#127,POSITIVE_LENGTH_MEASURE(1000.0),#128);
#83=VERTEX_POINT('',#129);
#84=CIRCLE('',#130,8.0);
#85=CURVE_STYLE('',#131,POSITIVE_LENGTH_MEASURE(1000.0),#132);
#86=VERTEX_POINT('',#133);
#87=CIRCLE('',#134,6.0);
#88=SURFACE_STYLE_USAGE(.BOTH.,#135);
#89=CURVE_STYLE('',#136,POSITIVE_LENGTH_MEASURE(1000.0),#137);
#90=FACE_BOUND('',#138,.T.);
#91=FACE_BOUND('',#139,.T.);
#92=CYLINDRICAL_SURFACE('',#140,8.0);
#93=CURVE_STYLE('',#141,POSITIVE_LENGTH_MEASURE(1000.0),#142);
#94=VERTEX_POINT('',#143);
#95=CIRCLE('',#144,6.0);
#96=SURFACE_STYLE_USAGE(.BOTH.,#145);
#97=CURVE_STYLE('',#146,POSITIVE_LENGTH_MEASURE(1000.0),#147);
#98=FACE_BOUND('',#148,.T.);
#99=FACE_BOUND('',#149,.T.);
#100=CYLINDRICAL_SURFACE('',#150,6.0);
#101=SURFACE_STYLE_USAGE(.BOTH.,#151);
#102=CURVE_STYLE('',#152,POSITIVE_LENGTH_MEASURE(1000.0),#153);
#103=FACE_OUTER_BOUND('',#154,.T.);
#104=PLANE('',#155);
#105=SURFACE_STYLE_USAGE(.BOTH.,#156);
#106=CURVE_STYLE('',#157,POSITIVE_LENGTH_MEASURE(1000.0),#158);
#107=FACE_OUTER_BOUND('',#159,.T.);
#108=FACE_BOUND('',#160,.T.);
#109=PLANE('',#161);
#110=CURVE_STYLE('',#162,POSITIVE_LENGTH_MEASURE(1000.0),#163);
#111=VERTEX_POINT('',#164);
#112=CIRCLE('',#165,8.0);
#113=PRODUCT_CONTEXT('',#20,'mechanical');
#114=PRODUCT_DEFINITION_FORMATION_WITH_SPECIFIED_SOURCE(' ','NONE',#59,.NOT_KNOWN.);
#115=CARTESIAN_POINT('',(0.0,0.0,0.0));
#116=DIRECTION('',(0.0,0.0,1.0));
#117=DIRECTION('',(1.0,0.0,0.0));
#118= (NAMED_UNIT(#67)LENGTH_UNIT()SI_UNIT(.MILLI.,.METRE.));
#119=SURFACE_SIDE_STYLE('',(#167));
#120=DRAUGHTING_PRE_DEFINED_CURVE_FONT('continuous');
#121=COLOUR_RGB('',0.501960813999176,0.501960813999176,0.501960813999176);
#122=SURFACE_SIDE_STYLE('',(#168));
#123=DRAUGHTING_PRE_DEFINED_CURVE_FONT('continuous');
#124=COLOUR_RGB('',0.501960813999176,0.501960813999176,0.501960813999176);
#125=EDGE_LOOP('',(#169));
#126=AXIS2_PLACEMENT_3D('',#170,#171,#172);
#127=DRAUGHTING_PRE_DEFINED_CURVE_FONT('continuous');
#128=COLOUR_RGB('',0.501960813999176,0.501960813999176,0.501960813999176);
#129=CARTESIAN_POINT('',(-9.86076131526265E-032,8.0,9.79717439317882E-016));
#130=AXIS2_PLACEMENT_3D('',#173,#174,#175);
#131=DRAUGHTING_PRE_DEFINED_CURVE_FONT('continuous');
#132=COLOUR_RGB('',0.501960813999176,0.501960813999176,0.501960813999176);
#133=CARTESIAN_POINT('',(-4.40872847693047E-015,5.99999999999999,72.0));
#134=AXIS2_PLACEMENT_3D('',#176,#177,#178);
#135=SURFACE_SIDE_STYLE('',(#179));
#136=DRAUGHTING_PRE_DEFINED_CURVE_FONT('continuous');
#137=COLOUR_RGB('',0.501960813999176,0.501960813999176,0.501960813999176);
#138=EDGE_LOOP('',(#180));
#139=EDGE_LOOP('',(#181));
#140=AXIS2_PLACEMENT_3D('',#182,#183,#184);
#141=DRAUGHTING_PRE_DEFINED_CURVE_FONT('continuous');
#142=COLOUR_RGB('',0.501960813999176,0.501960813999176,0.501960813999176);
#143=CARTESIAN_POINT('',(-3.06161699786838E-016,6.0,5.0));
#144=AXIS2_PLACEMENT_3D('',#185,#186,#187);
#145=SURFACE_SIDE_STYLE('',(#188));
#146=DRAUGHTING_PRE_DEFINED_CURVE_FONT('continuous');
#147=COLOUR_RGB('',0.501960813999176,0.501960813999176,0.501960813999176);
#148=EDGE_LOOP('',(#189));
#149=EDGE_LOOP('',(#190));
#150=AXIS2_PLACEMENT_3D('',#191,#192,#193);
#151=SURFACE_SIDE_STYLE('',(#194));
#152=DRAUGHTING_PRE_DEFINED_CURVE_FONT('continuous');
#153=COLOUR_RGB('',0.501960813999176,0.501960813999176,0.501960813999176);
#154=EDGE_LOOP('',(#195));
#155=AXIS2_PLACEMENT_3D('',#196,#197,#198);
#156=SURFACE_SIDE_STYLE('',(#199));
#157=DRAUGHTING_PRE_DEFINED_CURVE_FONT('continuous');
#158=COLOUR_RGB('',0.501960813999176,0.501960813999176,0.501960813999176);
#159=EDGE_LOOP('',(#200));
#160=EDGE_LOOP('',(#201));
#161=AXIS2_PLACEMENT_3D('',#202,#203,#204);
#162=DRAUGHTING_PRE_DEFINED_CURVE_FONT('continuous');
#163=COLOUR_RGB('',0.501960813999176,0.501960813999176,0.501960813999176);
#164=CARTESIAN_POINT('',(-3.06161699786838E-016,8.0,5.0));
#165=AXIS2_PLACEMENT_3D('',#205,#206,#207);
#167=SURFACE_STYLE_FILL_AREA(#208);
#168=SURFACE_STYLE_FILL_AREA(#209);
#169=ORIENTED_EDGE('',*,*,#42,.F.);
#170=CARTESIAN_POINT('',(-4.40872847693047E-015,2.99999999999999,72.0));
#171=DIRECTION('',(7.49879891330927E-033,-1.22464679914735E-016,1.0));
#172=DIRECTION('',(1.0,6.12323399573677E-017,0.0));
#173=CARTESIAN_POINT('',(0.0,0.0,0.0));
#174=DIRECTION('',(6.12323399573677E-017,1.22464679914735E-016,-1.0));
#175=DIRECTION('',(-1.23259516440783E-032,1.0,1.22464679914735E-016));
#176=CARTESIAN_POINT('',(-4.40872847693047E-015,-8.81745695386094E-015,72.0));
#177=DIRECTION('',(6.12323399573677E-017,1.22464679914735E-016,-1.0));
#178=DIRECTION('',(-1.23259516440783E-032,1.0,1.22464679914735E-016));
#179=SURFACE_STYLE_FILL_AREA(#210);
#180=ORIENTED_EDGE('',*,*,#40,.F.);
#181=ORIENTED_EDGE('',*,*,#58,.T.);
#182=CARTESIAN_POINT('',(-1.53080849893419E-016,-3.06161699786838E-016,2.5));
#183=DIRECTION('',(6.12323399573677E-017,1.22464679914735E-016,-1.0));
#184=DIRECTION('',(-1.23259516440783E-032,1.0,1.22464679914735E-016));
#185=CARTESIAN_POINT('',(-3.06161699786838E-016,-6.12323399573677E-016,5.0));
#186=DIRECTION('',(6.12323399573677E-017,1.22464679914735E-016,-1.0));
#187=DIRECTION('',(-1.23259516440783E-032,1.0,1.22464679914735E-016));
#188=SURFACE_STYLE_FILL_AREA(#211);
#189=ORIENTED_EDGE('',*,*,#47,.F.);
#190=ORIENTED_EDGE('',*,*,#42,.T.);
#191=CARTESIAN_POINT('',(-2.35744508835865E-015,-4.71489017671731E-015,38.5));
#192=DIRECTION('',(6.12323399573677E-017,1.22464679914735E-016,-1.0));
#193=DIRECTION('',(-1.23259516440783E-032,1.0,1.22464679914735E-016));
#194=SURFACE_STYLE_FILL_AREA(#212);
#195=ORIENTED_EDGE('',*,*,#40,.T.);
#196=CARTESIAN_POINT('',(-4.93038065763132E-032,4.0,4.89858719658941E-016));
#197=DIRECTION('',(6.12323399573677E-017,1.22464679914735E-016,-1.0));
#198=DIRECTION('',(-1.0,0.0,-6.12323399573677E-017));
#199=SURFACE_STYLE_FILL_AREA(#213);
#200=ORIENTED_EDGE('',*,*,#58,.F.);
#201=ORIENTED_EDGE('',*,*,#47,.T.);
#202=CARTESIAN_POINT('',(-3.06161699786838E-016,7.0,5.0));
#203=DIRECTION('',(7.49879891330927E-033,-1.22464679914735E-016,1.0));
#204=DIRECTION('',(1.0,6.12323399573677E-017,0.0));
#205=CARTESIAN_POINT('',(-3.06161699786838E-016,-6.12323399573677E-016,5.0));
#206=DIRECTION('',(6.12323399573677E-017,1.22464679914735E-016,-1.0));
#207=DIRECTION('',(-1.23259516440783E-032,1.0,1.22464679914735E-016));
#208=FILL_AREA_STYLE('',(#214));
#209=FILL_AREA_STYLE('',(#215));
#210=FILL_AREA_STYLE('',(#216));
#211=FILL_AREA_STYLE('',(#217));
#212=FILL_AREA_STYLE('',(#218));
#213=FILL_AREA_STYLE('',(#219));
#214=FILL_AREA_STYLE_COLOUR('',#220);
#215=FILL_AREA_STYLE_COLOUR('',#221);
#216=FILL_AREA_STYLE_COLOUR('',#222);
#217=FILL_AREA_STYLE_COLOUR('',#223);
#218=FILL_AREA_STYLE_COLOUR('',#224);
#219=FILL_AREA_STYLE_COLOUR('',#225);
#220=COLOUR_RGB('',0.501960813999176,0.501960813999176,0.501960813999176);
#221=COLOUR_RGB('',0.501960813999176,0.501960813999176,0.501960813999176);
#222=COLOUR_RGB('',0.501960813999176,0.501960813999176,0.501960813999176);
#223=COLOUR_RGB('',0.501960813999176,0.501960813999176,0.501960813999176);
#224=COLOUR_RGB('',0.501960813999176,0.501960813999176,0.501960813999176);
#225=COLOUR_RGB('',0.501960813999176,0.501960813999176,0.501960813999176);
ENDSEC;
END-ISO-10303-21;
