ISO-10303-21;
HEADER;
FILE_DESCRIPTION((''),'1');
FILE_NAME('U:/Translate/02_3D_Field-HP\X2\FF71FF6FFF8CFF9F5916\X0\2013/02_Step_Field-HP\X2\FF71FF6FFF8CFF9F5916\X0\2013/71_\X2\5207524A5DE55177\X0\/44_\X2\FF7EFF9DFF80FF70FF8EFF9EFF70FF72\X0\/ST12-CBY12013.stp','2015-09-17T00:43:53',(''),(''),'Spatial Interop R21 SP3','Kubotek KeyCreator 2011 V10.0.2 (22737)',' ');
FILE_SCHEMA(('automotive_design'));
ENDSEC;
DATA;
#1=MECHANICAL_DESIGN_GEOMETRIC_PRESENTATION_REPRESENTATION(' ',(#10,#11,#12,#13,#14,#15,#16,#17,#18,#19),#6);
#2=PRODUCT_DEFINITION_CONTEXT('',#20,'design');
#3=APPLICATION_PROTOCOL_DEFINITION('INTERNATIONAL STANDARD','automotive_design',1994,#20);
#4=PRODUCT_CATEGORY_RELATIONSHIP('NONE','NONE',#21,#22);
#5=SHAPE_DEFINITION_REPRESENTATION(#23,#24);
#6= (GEOMETRIC_REPRESENTATION_CONTEXT(3)GLOBAL_UNCERTAINTY_ASSIGNED_CONTEXT((#27))GLOBAL_UNIT_ASSIGNED_CONTEXT((#29,#30,#31))REPRESENTATION_CONTEXT('NONE','WORKSPACE'));
#10=STYLED_ITEM('',(#33,#34),#35);
#11=STYLED_ITEM('',(#36),#37);
#12=STYLED_ITEM('',(#38,#39),#40);
#13=STYLED_ITEM('',(#41,#42),#43);
#14=STYLED_ITEM('',(#44,#45),#46);
#15=STYLED_ITEM('',(#47),#48);
#16=STYLED_ITEM('',(#49,#50),#51);
#17=STYLED_ITEM('',(#52),#53);
#18=STYLED_ITEM('',(#54),#55);
#19=STYLED_ITEM('',(#56,#57),#58);
#20=APPLICATION_CONTEXT(' ');
#21=PRODUCT_CATEGORY('part','NONE');
#22=PRODUCT_RELATED_PRODUCT_CATEGORY('detail',' ',(#59));
#23=PRODUCT_DEFINITION_SHAPE('NONE','NONE',#60);
#24=ADVANCED_BREP_SHAPE_REPRESENTATION('Unnamed[1]',(#40,#61),#6);
#27=UNCERTAINTY_MEASURE_WITH_UNIT(LENGTH_MEASURE(1.0E-006),#29,'','');
#29= (CONVERSION_BASED_UNIT('MILLIMETRE',#64)LENGTH_UNIT()NAMED_UNIT(#67));
#30= (NAMED_UNIT(#69)PLANE_ANGLE_UNIT()SI_UNIT($,.RADIAN.));
#31= (NAMED_UNIT(#69)SOLID_ANGLE_UNIT()SI_UNIT($,.STERADIAN.));
#33=PRESENTATION_STYLE_ASSIGNMENT((#75));
#34=PRESENTATION_STYLE_ASSIGNMENT((#76));
#35=ADVANCED_FACE('Unnamed[1]',(#77),#78,.T.);
#36=PRESENTATION_STYLE_ASSIGNMENT((#79));
#37=EDGE_CURVE('Unnamed[1]',#80,#80,#81,.T.);
#38=PRESENTATION_STYLE_ASSIGNMENT((#82));
#39=PRESENTATION_STYLE_ASSIGNMENT((#83));
#40=MANIFOLD_SOLID_BREP('Unnamed[1]',#84);
#41=PRESENTATION_STYLE_ASSIGNMENT((#85));
#42=PRESENTATION_STYLE_ASSIGNMENT((#86));
#43=ADVANCED_FACE('Unnamed[1]',(#87,#88),#89,.T.);
#44=PRESENTATION_STYLE_ASSIGNMENT((#90));
#45=PRESENTATION_STYLE_ASSIGNMENT((#91));
#46=ADVANCED_FACE('Unnamed[1]',(#92,#93),#94,.T.);
#47=PRESENTATION_STYLE_ASSIGNMENT((#95));
#48=EDGE_CURVE('Unnamed[1]',#96,#96,#97,.T.);
#49=PRESENTATION_STYLE_ASSIGNMENT((#98));
#50=PRESENTATION_STYLE_ASSIGNMENT((#99));
#51=ADVANCED_FACE('Unnamed[1]',(#100,#101),#102,.T.);
#52=PRESENTATION_STYLE_ASSIGNMENT((#103));
#53=EDGE_CURVE('Unnamed[1]',#104,#104,#105,.T.);
#54=PRESENTATION_STYLE_ASSIGNMENT((#106));
#55=EDGE_CURVE('Unnamed[1]',#107,#107,#108,.T.);
#56=PRESENTATION_STYLE_ASSIGNMENT((#109));
#57=PRESENTATION_STYLE_ASSIGNMENT((#110));
#58=ADVANCED_FACE('Unnamed[1]',(#111,#112),#113,.T.);
#59=PRODUCT('Unnamed[1]','Unnamed[1]','PART-Unnamed[1]-DESC',(#114));
#60=PRODUCT_DEFINITION('NONE','NONE',#115,#2);
#61=AXIS2_PLACEMENT_3D('',#116,#117,#118);
#64=LENGTH_MEASURE_WITH_UNIT(LENGTH_MEASURE(1.0),#119);
#67=DIMENSIONAL_EXPONENTS(1.0,0.0,0.0,0.0,0.0,0.0,0.0);
#69=DIMENSIONAL_EXPONENTS(0.0,0.0,0.0,0.0,0.0,0.0,0.0);
#75=SURFACE_STYLE_USAGE(.BOTH.,#120);
#76=CURVE_STYLE('',#121,POSITIVE_LENGTH_MEASURE(1000.0),#122);
#77=FACE_OUTER_BOUND('',#123,.T.);
#78=PLANE('',#124);
#79=CURVE_STYLE('',#125,POSITIVE_LENGTH_MEASURE(1000.0),#126);
#80=VERTEX_POINT('',#127);
#81=CIRCLE('',#128,6.00000000000003);
#82=SURFACE_STYLE_USAGE(.BOTH.,#129);
#83=CURVE_STYLE('',#130,POSITIVE_LENGTH_MEASURE(1000.0),#131);
#84=CLOSED_SHELL('',(#35,#43,#51,#46,#58));
#85=SURFACE_STYLE_USAGE(.BOTH.,#132);
#86=CURVE_STYLE('',#133,POSITIVE_LENGTH_MEASURE(1000.0),#134);
#87=FACE_BOUND('',#135,.T.);
#88=FACE_BOUND('',#136,.T.);
#89=CYLINDRICAL_SURFACE('',#137,6.00000000000003);
#90=SURFACE_STYLE_USAGE(.BOTH.,#138);
#91=CURVE_STYLE('',#139,POSITIVE_LENGTH_MEASURE(1000.0),#140);
#92=FACE_BOUND('',#141,.T.);
#93=FACE_BOUND('',#142,.T.);
#94=CYLINDRICAL_SURFACE('',#143,6.49999999999992);
#95=CURVE_STYLE('',#144,POSITIVE_LENGTH_MEASURE(1000.0),#145);
#96=VERTEX_POINT('',#146);
#97=CIRCLE('',#147,6.00000000000002);
#98=SURFACE_STYLE_USAGE(.BOTH.,#148);
#99=CURVE_STYLE('',#149,POSITIVE_LENGTH_MEASURE(1000.0),#150);
#100=FACE_BOUND('',#151,.T.);
#101=FACE_BOUND('',#152,.T.);
#102=CONICAL_SURFACE('',#153,6.24999999999992,1.0471975512002);
#103=CURVE_STYLE('',#154,POSITIVE_LENGTH_MEASURE(1000.0),#155);
#104=VERTEX_POINT('',#156);
#105=CIRCLE('',#157,6.50000000000001);
#106=CURVE_STYLE('',#158,POSITIVE_LENGTH_MEASURE(1000.0),#159);
#107=VERTEX_POINT('',#160);
#108=CIRCLE('',#161,6.49999999999982);
#109=SURFACE_STYLE_USAGE(.BOTH.,#162);
#110=CURVE_STYLE('',#163,POSITIVE_LENGTH_MEASURE(1000.0),#164);
#111=FACE_BOUND('',#165,.T.);
#112=FACE_BOUND('',#166,.T.);
#113=CONICAL_SURFACE('',#167,3.25000000000001,1.0471975511966);
#114=PRODUCT_CONTEXT('',#20,'mechanical');
#115=PRODUCT_DEFINITION_FORMATION_WITH_SPECIFIED_SOURCE(' ','NONE',#59,.NOT_KNOWN.);
#116=CARTESIAN_POINT('',(0.0,0.0,0.0));
#117=DIRECTION('',(0.0,0.0,1.0));
#118=DIRECTION('',(1.0,0.0,0.0));
#119= (NAMED_UNIT(#67)LENGTH_UNIT()SI_UNIT(.MILLI.,.METRE.));
#120=SURFACE_SIDE_STYLE('',(#169));
#121=DRAUGHTING_PRE_DEFINED_CURVE_FONT('continuous');
#122=COLOUR_RGB('',0.0,1.0,0.0);
#123=EDGE_LOOP('',(#170));
#124=AXIS2_PLACEMENT_3D('',#171,#172,#173);
#125=DRAUGHTING_PRE_DEFINED_CURVE_FONT('continuous');
#126=COLOUR_RGB('',0.0,1.0,0.0);
#127=CARTESIAN_POINT('',(-5.16196612679796E-030,6.00000000000003,8.38283040299806E-014));
#128=AXIS2_PLACEMENT_3D('',#174,#175,#176);
#129=SURFACE_SIDE_STYLE('',(#177));
#130=DRAUGHTING_PRE_DEFINED_CURVE_FONT('continuous');
#131=COLOUR_RGB('',0.0,1.0,0.0);
#132=SURFACE_SIDE_STYLE('',(#178));
#133=DRAUGHTING_PRE_DEFINED_CURVE_FONT('continuous');
#134=COLOUR_RGB('',0.0,1.0,0.0);
#135=EDGE_LOOP('',(#179));
#136=EDGE_LOOP('',(#180));
#137=AXIS2_PLACEMENT_3D('',#181,#182,#183);
#138=SURFACE_SIDE_STYLE('',(#184));
#139=DRAUGHTING_PRE_DEFINED_CURVE_FONT('continuous');
#140=COLOUR_RGB('',0.0,1.0,0.0);
#141=EDGE_LOOP('',(#185));
#142=EDGE_LOOP('',(#186));
#143=AXIS2_PLACEMENT_3D('',#187,#188,#189);
#144=DRAUGHTING_PRE_DEFINED_CURVE_FONT('continuous');
#145=COLOUR_RGB('',0.0,1.0,0.0);
#146=CARTESIAN_POINT('',(8.32759823420197E-015,6.0,-135.999999999999));
#147=AXIS2_PLACEMENT_3D('',#190,#191,#192);
#148=SURFACE_SIDE_STYLE('',(#193));
#149=DRAUGHTING_PRE_DEFINED_CURVE_FONT('continuous');
#150=COLOUR_RGB('',0.0,1.0,0.0);
#151=EDGE_LOOP('',(#194));
#152=EDGE_LOOP('',(#195));
#153=AXIS2_PLACEMENT_3D('',#196,#197,#198);
#154=DRAUGHTING_PRE_DEFINED_CURVE_FONT('continuous');
#155=COLOUR_RGB('',0.0,1.0,0.0);
#156=CARTESIAN_POINT('',(8.95505969188142E-015,6.49999999999999,-146.247223250267));
#157=AXIS2_PLACEMENT_3D('',#199,#200,#201);
#158=DRAUGHTING_PRE_DEFINED_CURVE_FONT('continuous');
#159=COLOUR_RGB('',0.0,1.0,0.0);
#160=CARTESIAN_POINT('',(8.34527448818057E-015,6.4999999999998,-136.288675134592));
#161=AXIS2_PLACEMENT_3D('',#202,#203,#204);
#162=SURFACE_SIDE_STYLE('',(#205));
#163=DRAUGHTING_PRE_DEFINED_CURVE_FONT('continuous');
#164=COLOUR_RGB('',0.0,1.0,0.0);
#165=VERTEX_LOOP('',#206);
#166=EDGE_LOOP('',(#207));
#167=AXIS2_PLACEMENT_3D('',#208,#209,#210);
#169=SURFACE_STYLE_FILL_AREA(#211);
#170=ORIENTED_EDGE('',*,*,#37,.F.);
#171=CARTESIAN_POINT('',(-2.58098306339898E-030,3.00000000000001,4.19141520149903E-014));
#172=DIRECTION('',(-6.12323399573677E-017,-1.39713840049967E-014,1.0));
#173=DIRECTION('',(8.60327687799656E-031,-1.0,-1.39713840049967E-014));
#174=CARTESIAN_POINT('',(-5.22098332203606E-030,-2.80263157894746E-016,8.5265128291212E-014));
#175=DIRECTION('',(6.12323399573677E-017,-1.57798477980001E-016,-1.0));
#176=DIRECTION('',(4.83521731765762E-033,1.0,-1.57798477980001E-016));
#177=SURFACE_STYLE_FILL_AREA(#212);
#178=SURFACE_STYLE_FILL_AREA(#213);
#179=ORIENTED_EDGE('',*,*,#48,.F.);
#180=ORIENTED_EDGE('',*,*,#37,.T.);
#181=CARTESIAN_POINT('',(4.16379911710098E-015,-1.10105596605348E-014,-67.9999999999997));
#182=DIRECTION('',(6.12323399573677E-017,-1.57798477980001E-016,-1.0));
#183=DIRECTION('',(4.83521731765762E-033,1.0,-1.57798477980001E-016));
#184=SURFACE_STYLE_FILL_AREA(#214);
#185=ORIENTED_EDGE('',*,*,#53,.F.);
#186=ORIENTED_EDGE('',*,*,#55,.T.);
#187=CARTESIAN_POINT('',(8.65016709003099E-015,-2.25721305278163E-014,-141.26794919243));
#188=DIRECTION('',(6.12323399573676E-017,-1.57798477980001E-016,-1.0));
#189=DIRECTION('',(4.83521731765762E-033,1.0,-1.57798477980001E-016));
#190=CARTESIAN_POINT('',(8.32759823420197E-015,-2.17408561631749E-014,-135.999999999999));
#191=DIRECTION('',(6.12323399573677E-017,-1.57798477980001E-016,-1.0));
#192=DIRECTION('',(4.83521731765762E-033,1.0,-1.57798477980001E-016));
#193=SURFACE_STYLE_FILL_AREA(#215);
#194=ORIENTED_EDGE('',*,*,#55,.F.);
#195=ORIENTED_EDGE('',*,*,#48,.T.);
#196=CARTESIAN_POINT('',(8.33643636119127E-015,-2.17636324116095E-014,-136.144337567296));
#197=DIRECTION('',(6.12323399573676E-017,-1.57798477980001E-016,-1.0));
#198=DIRECTION('',(4.83521731765762E-033,1.0,-1.57798477980001E-016));
#199=CARTESIAN_POINT('',(8.95505969188142E-015,-2.33578523955884E-014,-146.247223250267));
#200=DIRECTION('',(6.12323399573677E-017,-1.57798477980001E-016,-1.0));
#201=DIRECTION('',(4.83521731765762E-033,1.0,-1.57798477980001E-016));
#202=CARTESIAN_POINT('',(8.34527448818057E-015,-2.17864086600442E-014,-136.288675134592));
#203=DIRECTION('',(6.12323399573677E-017,-1.57798477980001E-016,-1.0));
#204=DIRECTION('',(4.83521731765762E-033,1.0,-1.57798477980001E-016));
#205=SURFACE_STYLE_FILL_AREA(#216);
#206=VERTEX_POINT('',#217);
#207=ORIENTED_EDGE('',*,*,#53,.T.);
#208=CARTESIAN_POINT('',(9.06995534274328E-015,-2.36539436252417E-014,-148.123611625134));
#209=DIRECTION('',(-6.12323399573677E-017,1.57798477980001E-016,1.0));
#210=DIRECTION('',(4.83521731765762E-033,1.0,-1.57798477980001E-016));
#211=FILL_AREA_STYLE('',(#218));
#212=FILL_AREA_STYLE('',(#219));
#213=FILL_AREA_STYLE('',(#220));
#214=FILL_AREA_STYLE('',(#221));
#215=FILL_AREA_STYLE('',(#222));
#216=FILL_AREA_STYLE('',(#223));
#217=CARTESIAN_POINT('',(9.18485099360515E-015,-2.42628621583957E-014,-150.0));
#218=FILL_AREA_STYLE_COLOUR('',#224);
#219=FILL_AREA_STYLE_COLOUR('',#225);
#220=FILL_AREA_STYLE_COLOUR('',#226);
#221=FILL_AREA_STYLE_COLOUR('',#227);
#222=FILL_AREA_STYLE_COLOUR('',#228);
#223=FILL_AREA_STYLE_COLOUR('',#229);
#224=COLOUR_RGB('',0.0,1.0,0.0);
#225=COLOUR_RGB('',0.0,1.0,0.0);
#226=COLOUR_RGB('',0.0,1.0,0.0);
#227=COLOUR_RGB('',0.0,1.0,0.0);
#228=COLOUR_RGB('',0.0,1.0,0.0);
#229=COLOUR_RGB('',0.0,1.0,0.0);
ENDSEC;
END-ISO-10303-21;
