ISO-10303-21;
HEADER;
FILE_DESCRIPTION((''),'1');
FILE_NAME('T:/00_BIG-HP\X2\FF71FF6FFF8CFF9F\X0\/2022_\X2\30C030A630F330ED30FC30C930C730FC30BF\X0\/02_STEP\X2\FF83FF9EFF70FF80\X0\/LINK\X2\7528FF83FF9EFF70FF80FF8EFF99FF80FF9E\X0\/CK\X2\FF8DFF6FFF84FF9E30FBFF71FF78FF7EFF7BFF98\X0\/10_\X2\4ED54E0A305275284E38FF8AFF9EFF72FF84FF7CFF98FF70FF7DFF9E\X0\/02_\X2\4E38FF8AFF9EFF72FF84FF7CFF6CFF9DFF78\X0\/\X2\5C5E6027590966F4\X0\/ST10W-M6-95.stp','2022-09-05T02:41:32',(''),(''),'Spatial Interop R21 SP3','Kubotek KeyCreator 2011 V10.0.2 (22737)',' ');
FILE_SCHEMA(('automotive_design'));
ENDSEC;
DATA;
#1=MECHANICAL_DESIGN_GEOMETRIC_PRESENTATION_REPRESENTATION(' ',(#10,#11,#12,#13,#14,#15),#6);
#2=PRODUCT_DEFINITION_CONTEXT('',#16,'design');
#3=APPLICATION_PROTOCOL_DEFINITION('INTERNATIONAL STANDARD','automotive_design',1994,#16);
#4=PRODUCT_CATEGORY_RELATIONSHIP('NONE','NONE',#17,#18);
#5=SHAPE_DEFINITION_REPRESENTATION(#19,#20);
#6= (GEOMETRIC_REPRESENTATION_CONTEXT(3)GLOBAL_UNCERTAINTY_ASSIGNED_CONTEXT((#23))GLOBAL_UNIT_ASSIGNED_CONTEXT((#25,#26,#27))REPRESENTATION_CONTEXT('NONE','WORKSPACE'));
#10=STYLED_ITEM('',(#29),#30);
#11=STYLED_ITEM('',(#31,#32),#33);
#12=STYLED_ITEM('',(#34,#35),#36);
#13=STYLED_ITEM('',(#37),#38);
#14=STYLED_ITEM('',(#39,#40),#41);
#15=STYLED_ITEM('',(#42,#43),#44);
#16=APPLICATION_CONTEXT(' ');
#17=PRODUCT_CATEGORY('part','NONE');
#18=PRODUCT_RELATED_PRODUCT_CATEGORY('detail',' ',(#45));
#19=PRODUCT_DEFINITION_SHAPE('NONE','NONE',#46);
#20=ADVANCED_BREP_SHAPE_REPRESENTATION('240[2]',(#41,#47),#6);
#23=UNCERTAINTY_MEASURE_WITH_UNIT(LENGTH_MEASURE(1.0E-006),#25,'','');
#25= (CONVERSION_BASED_UNIT('MILLIMETRE',#50)LENGTH_UNIT()NAMED_UNIT(#53));
#26= (NAMED_UNIT(#55)PLANE_ANGLE_UNIT()SI_UNIT($,.RADIAN.));
#27= (NAMED_UNIT(#55)SOLID_ANGLE_UNIT()SI_UNIT($,.STERADIAN.));
#29=PRESENTATION_STYLE_ASSIGNMENT((#61));
#30=EDGE_CURVE('240[2]',#62,#62,#63,.T.);
#31=PRESENTATION_STYLE_ASSIGNMENT((#64));
#32=PRESENTATION_STYLE_ASSIGNMENT((#65));
#33=ADVANCED_FACE('240[2]',(#66),#67,.T.);
#34=PRESENTATION_STYLE_ASSIGNMENT((#68));
#35=PRESENTATION_STYLE_ASSIGNMENT((#69));
#36=ADVANCED_FACE('240[2]',(#70),#71,.T.);
#37=PRESENTATION_STYLE_ASSIGNMENT((#72));
#38=EDGE_CURVE('240[2]',#73,#73,#74,.T.);
#39=PRESENTATION_STYLE_ASSIGNMENT((#75));
#40=PRESENTATION_STYLE_ASSIGNMENT((#76));
#41=MANIFOLD_SOLID_BREP('240[2]',#77);
#42=PRESENTATION_STYLE_ASSIGNMENT((#78));
#43=PRESENTATION_STYLE_ASSIGNMENT((#79));
#44=ADVANCED_FACE('240[2]',(#80,#81),#82,.T.);
#45=PRODUCT('240[2]','240[2]','PART-240[2]-DESC',(#83));
#46=PRODUCT_DEFINITION('NONE','NONE',#84,#2);
#47=AXIS2_PLACEMENT_3D('',#85,#86,#87);
#50=LENGTH_MEASURE_WITH_UNIT(LENGTH_MEASURE(1.0),#88);
#53=DIMENSIONAL_EXPONENTS(1.0,0.0,0.0,0.0,0.0,0.0,0.0);
#55=DIMENSIONAL_EXPONENTS(0.0,0.0,0.0,0.0,0.0,0.0,0.0);
#61=CURVE_STYLE('',#89,POSITIVE_LENGTH_MEASURE(1000.0),#90);
#62=VERTEX_POINT('',#91);
#63=CIRCLE('',#92,5.0);
#64=SURFACE_STYLE_USAGE(.BOTH.,#93);
#65=CURVE_STYLE('',#94,POSITIVE_LENGTH_MEASURE(1000.0),#95);
#66=FACE_OUTER_BOUND('',#96,.T.);
#67=PLANE('',#97);
#68=SURFACE_STYLE_USAGE(.BOTH.,#98);
#69=CURVE_STYLE('',#99,POSITIVE_LENGTH_MEASURE(1000.0),#100);
#70=FACE_OUTER_BOUND('',#101,.T.);
#71=PLANE('',#102);
#72=CURVE_STYLE('',#103,POSITIVE_LENGTH_MEASURE(1000.0),#104);
#73=VERTEX_POINT('',#105);
#74=CIRCLE('',#106,5.0);
#75=SURFACE_STYLE_USAGE(.BOTH.,#107);
#76=CURVE_STYLE('',#108,POSITIVE_LENGTH_MEASURE(1000.0),#109);
#77=CLOSED_SHELL('',(#33,#44,#36));
#78=SURFACE_STYLE_USAGE(.BOTH.,#110);
#79=CURVE_STYLE('',#111,POSITIVE_LENGTH_MEASURE(1000.0),#112);
#80=FACE_BOUND('',#113,.T.);
#81=FACE_BOUND('',#114,.T.);
#82=CYLINDRICAL_SURFACE('',#115,5.0);
#83=PRODUCT_CONTEXT('',#16,'mechanical');
#84=PRODUCT_DEFINITION_FORMATION_WITH_SPECIFIED_SOURCE(' ','NONE',#45,.NOT_KNOWN.);
#85=CARTESIAN_POINT('',(0.0,0.0,0.0));
#86=DIRECTION('',(0.0,0.0,1.0));
#87=DIRECTION('',(1.0,0.0,0.0));
#88= (NAMED_UNIT(#53)LENGTH_UNIT()SI_UNIT(.MILLI.,.METRE.));
#89=DRAUGHTING_PRE_DEFINED_CURVE_FONT('continuous');
#90=COLOUR_RGB('',0.501960813999176,0.501960813999176,0.501960813999176);
#91=CARTESIAN_POINT('',(-5.93953697586466E-015,4.99999999999999,97.0));
#92=AXIS2_PLACEMENT_3D('',#117,#118,#119);
#93=SURFACE_SIDE_STYLE('',(#120));
#94=DRAUGHTING_PRE_DEFINED_CURVE_FONT('continuous');
#95=COLOUR_RGB('',0.501960813999176,0.501960813999176,0.501960813999176);
#96=EDGE_LOOP('',(#121));
#97=AXIS2_PLACEMENT_3D('',#122,#123,#124);
#98=SURFACE_SIDE_STYLE('',(#125));
#99=DRAUGHTING_PRE_DEFINED_CURVE_FONT('continuous');
#100=COLOUR_RGB('',0.501960813999176,0.501960813999176,0.501960813999176);
#101=EDGE_LOOP('',(#126));
#102=AXIS2_PLACEMENT_3D('',#127,#128,#129);
#103=DRAUGHTING_PRE_DEFINED_CURVE_FONT('continuous');
#104=COLOUR_RGB('',0.501960813999176,0.501960813999176,0.501960813999176);
#105=CARTESIAN_POINT('',(-6.16297582203915E-032,5.0,6.12323399573677E-016));
#106=AXIS2_PLACEMENT_3D('',#130,#131,#132);
#107=SURFACE_SIDE_STYLE('',(#133));
#108=DRAUGHTING_PRE_DEFINED_CURVE_FONT('continuous');
#109=COLOUR_RGB('',0.501960813999176,0.501960813999176,0.501960813999176);
#110=SURFACE_SIDE_STYLE('',(#134));
#111=DRAUGHTING_PRE_DEFINED_CURVE_FONT('continuous');
#112=COLOUR_RGB('',0.501960813999176,0.501960813999176,0.501960813999176);
#113=EDGE_LOOP('',(#135));
#114=EDGE_LOOP('',(#136));
#115=AXIS2_PLACEMENT_3D('',#137,#138,#139);
#117=CARTESIAN_POINT('',(-5.93953697586466E-015,-1.18790739517293E-014,97.0));
#118=DIRECTION('',(6.12323399573677E-017,1.22464679914735E-016,-1.0));
#119=DIRECTION('',(-1.23259516440783E-032,1.0,1.22464679914735E-016));
#120=SURFACE_STYLE_FILL_AREA(#140);
#121=ORIENTED_EDGE('',*,*,#30,.F.);
#122=CARTESIAN_POINT('',(-5.93953697586466E-015,2.49999999999999,97.0));
#123=DIRECTION('',(7.49879891330927E-033,-1.22464679914735E-016,1.0));
#124=DIRECTION('',(1.0,6.12323399573677E-017,0.0));
#125=SURFACE_STYLE_FILL_AREA(#141);
#126=ORIENTED_EDGE('',*,*,#38,.T.);
#127=CARTESIAN_POINT('',(-3.08148791101958E-032,2.5,3.06161699786838E-016));
#128=DIRECTION('',(6.12323399573677E-017,1.22464679914735E-016,-1.0));
#129=DIRECTION('',(-1.0,0.0,-6.12323399573677E-017));
#130=CARTESIAN_POINT('',(0.0,0.0,0.0));
#131=DIRECTION('',(6.12323399573677E-017,1.22464679914735E-016,-1.0));
#132=DIRECTION('',(-1.23259516440783E-032,1.0,1.22464679914735E-016));
#133=SURFACE_STYLE_FILL_AREA(#142);
#134=SURFACE_STYLE_FILL_AREA(#143);
#135=ORIENTED_EDGE('',*,*,#38,.F.);
#136=ORIENTED_EDGE('',*,*,#30,.T.);
#137=CARTESIAN_POINT('',(-2.96976848793233E-015,-5.93953697586466E-015,48.5));
#138=DIRECTION('',(6.12323399573677E-017,1.22464679914735E-016,-1.0));
#139=DIRECTION('',(-1.23259516440783E-032,1.0,1.22464679914735E-016));
#140=FILL_AREA_STYLE('',(#144));
#141=FILL_AREA_STYLE('',(#145));
#142=FILL_AREA_STYLE('',(#146));
#143=FILL_AREA_STYLE('',(#147));
#144=FILL_AREA_STYLE_COLOUR('',#148);
#145=FILL_AREA_STYLE_COLOUR('',#149);
#146=FILL_AREA_STYLE_COLOUR('',#150);
#147=FILL_AREA_STYLE_COLOUR('',#151);
#148=COLOUR_RGB('',0.501960813999176,0.501960813999176,0.501960813999176);
#149=COLOUR_RGB('',0.501960813999176,0.501960813999176,0.501960813999176);
#150=COLOUR_RGB('',0.501960813999176,0.501960813999176,0.501960813999176);
#151=COLOUR_RGB('',0.501960813999176,0.501960813999176,0.501960813999176);
ENDSEC;
END-ISO-10303-21;
