ISO-10303-21;
HEADER;
FILE_DESCRIPTION((''),'1');
FILE_NAME('T:/00_BIG-HP\X2\FF71FF6FFF8CFF9F\X0\/2022_\X2\30C030A630F330ED30FC30C930C730FC30BF\X0\/02_STEP\X2\FF83FF9EFF70FF80\X0\/LINK\X2\7528FF83FF9EFF70FF80FF8EFF99FF80FF9E\X0\/CK\X2\FF8DFF6FFF84FF9E30FBFF71FF78FF7EFF7BFF98\X0\/10_\X2\4ED54E0A305275284E38FF8AFF9EFF72FF84FF7CFF98FF70FF7DFF9E\X0\/02_\X2\4E38FF8AFF9EFF72FF84FF7CFF6CFF9DFF78\X0\/\X2\5C5E6027590966F4\X0\/ST10-M6-50.stp','2022-09-05T02:37:58',(''),(''),'Spatial Interop R21 SP3','Kubotek KeyCreator 2011 V10.0.2 (22737)',' ');
FILE_SCHEMA(('automotive_design'));
ENDSEC;
DATA;
#1=MECHANICAL_DESIGN_GEOMETRIC_PRESENTATION_REPRESENTATION(' ',(#10,#11,#12,#13,#14,#15),#6);
#2=PRODUCT_DEFINITION_CONTEXT('',#16,'design');
#3=APPLICATION_PROTOCOL_DEFINITION('INTERNATIONAL STANDARD','automotive_design',1994,#16);
#4=PRODUCT_CATEGORY_RELATIONSHIP('NONE','NONE',#17,#18);
#5=SHAPE_DEFINITION_REPRESENTATION(#19,#20);
#6= (GEOMETRIC_REPRESENTATION_CONTEXT(3)GLOBAL_UNCERTAINTY_ASSIGNED_CONTEXT((#23))GLOBAL_UNIT_ASSIGNED_CONTEXT((#25,#26,#27))REPRESENTATION_CONTEXT('NONE','WORKSPACE'));
#10=STYLED_ITEM('',(#29,#30),#31);
#11=STYLED_ITEM('',(#32),#33);
#12=STYLED_ITEM('',(#34,#35),#36);
#13=STYLED_ITEM('',(#37,#38),#39);
#14=STYLED_ITEM('',(#40,#41),#42);
#15=STYLED_ITEM('',(#43),#44);
#16=APPLICATION_CONTEXT(' ');
#17=PRODUCT_CATEGORY('part','NONE');
#18=PRODUCT_RELATED_PRODUCT_CATEGORY('detail',' ',(#45));
#19=PRODUCT_DEFINITION_SHAPE('NONE','NONE',#46);
#20=ADVANCED_BREP_SHAPE_REPRESENTATION('240[2]',(#39,#47),#6);
#23=UNCERTAINTY_MEASURE_WITH_UNIT(LENGTH_MEASURE(1.0E-006),#25,'','');
#25= (CONVERSION_BASED_UNIT('MILLIMETRE',#50)LENGTH_UNIT()NAMED_UNIT(#53));
#26= (NAMED_UNIT(#55)PLANE_ANGLE_UNIT()SI_UNIT($,.RADIAN.));
#27= (NAMED_UNIT(#55)SOLID_ANGLE_UNIT()SI_UNIT($,.STERADIAN.));
#29=PRESENTATION_STYLE_ASSIGNMENT((#61));
#30=PRESENTATION_STYLE_ASSIGNMENT((#62));
#31=ADVANCED_FACE('240[2]',(#63),#64,.T.);
#32=PRESENTATION_STYLE_ASSIGNMENT((#65));
#33=EDGE_CURVE('240[2]',#66,#66,#67,.T.);
#34=PRESENTATION_STYLE_ASSIGNMENT((#68));
#35=PRESENTATION_STYLE_ASSIGNMENT((#69));
#36=ADVANCED_FACE('240[2]',(#70,#71),#72,.T.);
#37=PRESENTATION_STYLE_ASSIGNMENT((#73));
#38=PRESENTATION_STYLE_ASSIGNMENT((#74));
#39=MANIFOLD_SOLID_BREP('240[2]',#75);
#40=PRESENTATION_STYLE_ASSIGNMENT((#76));
#41=PRESENTATION_STYLE_ASSIGNMENT((#77));
#42=ADVANCED_FACE('240[2]',(#78),#79,.T.);
#43=PRESENTATION_STYLE_ASSIGNMENT((#80));
#44=EDGE_CURVE('240[2]',#81,#81,#82,.T.);
#45=PRODUCT('240[2]','240[2]','PART-240[2]-DESC',(#83));
#46=PRODUCT_DEFINITION('NONE','NONE',#84,#2);
#47=AXIS2_PLACEMENT_3D('',#85,#86,#87);
#50=LENGTH_MEASURE_WITH_UNIT(LENGTH_MEASURE(1.0),#88);
#53=DIMENSIONAL_EXPONENTS(1.0,0.0,0.0,0.0,0.0,0.0,0.0);
#55=DIMENSIONAL_EXPONENTS(0.0,0.0,0.0,0.0,0.0,0.0,0.0);
#61=SURFACE_STYLE_USAGE(.BOTH.,#89);
#62=CURVE_STYLE('',#90,POSITIVE_LENGTH_MEASURE(1000.0),#91);
#63=FACE_OUTER_BOUND('',#92,.T.);
#64=PLANE('',#93);
#65=CURVE_STYLE('',#94,POSITIVE_LENGTH_MEASURE(1000.0),#95);
#66=VERTEX_POINT('',#96);
#67=CIRCLE('',#97,5.0);
#68=SURFACE_STYLE_USAGE(.BOTH.,#98);
#69=CURVE_STYLE('',#99,POSITIVE_LENGTH_MEASURE(1000.0),#100);
#70=FACE_BOUND('',#101,.T.);
#71=FACE_BOUND('',#102,.T.);
#72=CYLINDRICAL_SURFACE('',#103,5.0);
#73=SURFACE_STYLE_USAGE(.BOTH.,#104);
#74=CURVE_STYLE('',#105,POSITIVE_LENGTH_MEASURE(1000.0),#106);
#75=CLOSED_SHELL('',(#42,#36,#31));
#76=SURFACE_STYLE_USAGE(.BOTH.,#107);
#77=CURVE_STYLE('',#108,POSITIVE_LENGTH_MEASURE(1000.0),#109);
#78=FACE_OUTER_BOUND('',#110,.T.);
#79=PLANE('',#111);
#80=CURVE_STYLE('',#112,POSITIVE_LENGTH_MEASURE(1000.0),#113);
#81=VERTEX_POINT('',#114);
#82=CIRCLE('',#115,5.0);
#83=PRODUCT_CONTEXT('',#16,'mechanical');
#84=PRODUCT_DEFINITION_FORMATION_WITH_SPECIFIED_SOURCE(' ','NONE',#45,.NOT_KNOWN.);
#85=CARTESIAN_POINT('',(0.0,0.0,0.0));
#86=DIRECTION('',(0.0,0.0,1.0));
#87=DIRECTION('',(1.0,0.0,0.0));
#88= (NAMED_UNIT(#53)LENGTH_UNIT()SI_UNIT(.MILLI.,.METRE.));
#89=SURFACE_SIDE_STYLE('',(#117));
#90=DRAUGHTING_PRE_DEFINED_CURVE_FONT('continuous');
#91=COLOUR_RGB('',0.501960813999176,0.501960813999176,0.501960813999176);
#92=EDGE_LOOP('',(#118));
#93=AXIS2_PLACEMENT_3D('',#119,#120,#121);
#94=DRAUGHTING_PRE_DEFINED_CURVE_FONT('continuous');
#95=COLOUR_RGB('',0.501960813999176,0.501960813999176,0.501960813999176);
#96=CARTESIAN_POINT('',(-3.18408167778312E-015,4.99999999999999,52.0));
#97=AXIS2_PLACEMENT_3D('',#122,#123,#124);
#98=SURFACE_SIDE_STYLE('',(#125));
#99=DRAUGHTING_PRE_DEFINED_CURVE_FONT('continuous');
#100=COLOUR_RGB('',0.501960813999176,0.501960813999176,0.501960813999176);
#101=EDGE_LOOP('',(#126));
#102=EDGE_LOOP('',(#127));
#103=AXIS2_PLACEMENT_3D('',#128,#129,#130);
#104=SURFACE_SIDE_STYLE('',(#131));
#105=DRAUGHTING_PRE_DEFINED_CURVE_FONT('continuous');
#106=COLOUR_RGB('',0.501960813999176,0.501960813999176,0.501960813999176);
#107=SURFACE_SIDE_STYLE('',(#132));
#108=DRAUGHTING_PRE_DEFINED_CURVE_FONT('continuous');
#109=COLOUR_RGB('',0.501960813999176,0.501960813999176,0.501960813999176);
#110=EDGE_LOOP('',(#133));
#111=AXIS2_PLACEMENT_3D('',#134,#135,#136);
#112=DRAUGHTING_PRE_DEFINED_CURVE_FONT('continuous');
#113=COLOUR_RGB('',0.501960813999176,0.501960813999176,0.501960813999176);
#114=CARTESIAN_POINT('',(-6.16297582203915E-032,5.0,6.12323399573677E-016));
#115=AXIS2_PLACEMENT_3D('',#137,#138,#139);
#117=SURFACE_STYLE_FILL_AREA(#140);
#118=ORIENTED_EDGE('',*,*,#44,.T.);
#119=CARTESIAN_POINT('',(-3.08148791101958E-032,2.5,3.06161699786838E-016));
#120=DIRECTION('',(6.12323399573677E-017,1.22464679914735E-016,-1.0));
#121=DIRECTION('',(-1.0,0.0,-6.12323399573677E-017));
#122=CARTESIAN_POINT('',(-3.18408167778312E-015,-6.36816335556624E-015,52.0));
#123=DIRECTION('',(6.12323399573677E-017,1.22464679914735E-016,-1.0));
#124=DIRECTION('',(-1.23259516440783E-032,1.0,1.22464679914735E-016));
#125=SURFACE_STYLE_FILL_AREA(#141);
#126=ORIENTED_EDGE('',*,*,#44,.F.);
#127=ORIENTED_EDGE('',*,*,#33,.T.);
#128=CARTESIAN_POINT('',(-1.59204083889156E-015,-3.18408167778312E-015,26.0));
#129=DIRECTION('',(6.12323399573677E-017,1.22464679914735E-016,-1.0));
#130=DIRECTION('',(-1.23259516440783E-032,1.0,1.22464679914735E-016));
#131=SURFACE_STYLE_FILL_AREA(#142);
#132=SURFACE_STYLE_FILL_AREA(#143);
#133=ORIENTED_EDGE('',*,*,#33,.F.);
#134=CARTESIAN_POINT('',(-3.18408167778312E-015,2.49999999999999,52.0));
#135=DIRECTION('',(7.49879891330927E-033,-1.22464679914735E-016,1.0));
#136=DIRECTION('',(1.0,6.12323399573677E-017,0.0));
#137=CARTESIAN_POINT('',(0.0,0.0,0.0));
#138=DIRECTION('',(6.12323399573677E-017,1.22464679914735E-016,-1.0));
#139=DIRECTION('',(-1.23259516440783E-032,1.0,1.22464679914735E-016));
#140=FILL_AREA_STYLE('',(#144));
#141=FILL_AREA_STYLE('',(#145));
#142=FILL_AREA_STYLE('',(#146));
#143=FILL_AREA_STYLE('',(#147));
#144=FILL_AREA_STYLE_COLOUR('',#148);
#145=FILL_AREA_STYLE_COLOUR('',#149);
#146=FILL_AREA_STYLE_COLOUR('',#150);
#147=FILL_AREA_STYLE_COLOUR('',#151);
#148=COLOUR_RGB('',0.501960813999176,0.501960813999176,0.501960813999176);
#149=COLOUR_RGB('',0.501960813999176,0.501960813999176,0.501960813999176);
#150=COLOUR_RGB('',0.501960813999176,0.501960813999176,0.501960813999176);
#151=COLOUR_RGB('',0.501960813999176,0.501960813999176,0.501960813999176);
ENDSEC;
END-ISO-10303-21;
