ISO-10303-21;
HEADER;
FILE_DESCRIPTION((''),'1');
FILE_NAME('T:/00_BIG-HP\X2\FF71FF6FFF8CFF9F\X0\/2022_\X2\30C030A630F330ED30FC30C930C730FC30BF\X0\/02_STEP\X2\FF83FF9EFF70FF80\X0\/LINK\X2\7528FF83FF9EFF70FF80FF8EFF99FF80FF9E\X0\/CK\X2\FF8DFF6FFF84FF9E30FBFF71FF78FF7EFF7BFF98\X0\/10_\X2\4ED54E0A305275284E38FF8AFF9EFF72FF84FF7CFF98FF70FF7DFF9E\X0\/02_\X2\4E38FF8AFF9EFF72FF84FF7CFF6CFF9DFF78\X0\/\X2\5C5E6027590966F4\X0\/ST10-M10-58.stp','2022-09-05T02:38:31',(''),(''),'Spatial Interop R21 SP3','Kubotek KeyCreator 2011 V10.0.2 (22737)',' ');
FILE_SCHEMA(('automotive_design'));
ENDSEC;
DATA;
#1=MECHANICAL_DESIGN_GEOMETRIC_PRESENTATION_REPRESENTATION(' ',(#10,#11,#12,#13,#14,#15,#16,#17,#18,#19),#6);
#2=PRODUCT_DEFINITION_CONTEXT('',#20,'design');
#3=APPLICATION_PROTOCOL_DEFINITION('INTERNATIONAL STANDARD','automotive_design',1994,#20);
#4=PRODUCT_CATEGORY_RELATIONSHIP('NONE','NONE',#21,#22);
#5=SHAPE_DEFINITION_REPRESENTATION(#23,#24);
#6= (GEOMETRIC_REPRESENTATION_CONTEXT(3)GLOBAL_UNCERTAINTY_ASSIGNED_CONTEXT((#27))GLOBAL_UNIT_ASSIGNED_CONTEXT((#29,#30,#31))REPRESENTATION_CONTEXT('NONE','WORKSPACE'));
#10=STYLED_ITEM('',(#33),#34);
#11=STYLED_ITEM('',(#35,#36),#37);
#12=STYLED_ITEM('',(#38),#39);
#13=STYLED_ITEM('',(#40,#41),#42);
#14=STYLED_ITEM('',(#43,#44),#45);
#15=STYLED_ITEM('',(#46),#47);
#16=STYLED_ITEM('',(#48,#49),#50);
#17=STYLED_ITEM('',(#51,#52),#53);
#18=STYLED_ITEM('',(#54,#55),#56);
#19=STYLED_ITEM('',(#57),#58);
#20=APPLICATION_CONTEXT(' ');
#21=PRODUCT_CATEGORY('part','NONE');
#22=PRODUCT_RELATED_PRODUCT_CATEGORY('detail',' ',(#59));
#23=PRODUCT_DEFINITION_SHAPE('NONE','NONE',#60);
#24=ADVANCED_BREP_SHAPE_REPRESENTATION('240[2]',(#42,#61),#6);
#27=UNCERTAINTY_MEASURE_WITH_UNIT(LENGTH_MEASURE(1.0E-006),#29,'','');
#29= (CONVERSION_BASED_UNIT('MILLIMETRE',#64)LENGTH_UNIT()NAMED_UNIT(#67));
#30= (NAMED_UNIT(#69)PLANE_ANGLE_UNIT()SI_UNIT($,.RADIAN.));
#31= (NAMED_UNIT(#69)SOLID_ANGLE_UNIT()SI_UNIT($,.STERADIAN.));
#33=PRESENTATION_STYLE_ASSIGNMENT((#75));
#34=EDGE_CURVE('240[2]',#76,#76,#77,.T.);
#35=PRESENTATION_STYLE_ASSIGNMENT((#78));
#36=PRESENTATION_STYLE_ASSIGNMENT((#79));
#37=ADVANCED_FACE('240[2]',(#80,#81),#82,.T.);
#38=PRESENTATION_STYLE_ASSIGNMENT((#83));
#39=EDGE_CURVE('240[2]',#84,#84,#85,.T.);
#40=PRESENTATION_STYLE_ASSIGNMENT((#86));
#41=PRESENTATION_STYLE_ASSIGNMENT((#87));
#42=MANIFOLD_SOLID_BREP('240[2]',#88);
#43=PRESENTATION_STYLE_ASSIGNMENT((#89));
#44=PRESENTATION_STYLE_ASSIGNMENT((#90));
#45=ADVANCED_FACE('240[2]',(#91,#92),#93,.T.);
#46=PRESENTATION_STYLE_ASSIGNMENT((#94));
#47=EDGE_CURVE('240[2]',#95,#95,#96,.T.);
#48=PRESENTATION_STYLE_ASSIGNMENT((#97));
#49=PRESENTATION_STYLE_ASSIGNMENT((#98));
#50=ADVANCED_FACE('240[2]',(#99),#100,.T.);
#51=PRESENTATION_STYLE_ASSIGNMENT((#101));
#52=PRESENTATION_STYLE_ASSIGNMENT((#102));
#53=ADVANCED_FACE('240[2]',(#103),#104,.T.);
#54=PRESENTATION_STYLE_ASSIGNMENT((#105));
#55=PRESENTATION_STYLE_ASSIGNMENT((#106));
#56=ADVANCED_FACE('240[2]',(#107,#108),#109,.T.);
#57=PRESENTATION_STYLE_ASSIGNMENT((#110));
#58=EDGE_CURVE('240[2]',#111,#111,#112,.T.);
#59=PRODUCT('240[2]','240[2]','PART-240[2]-DESC',(#113));
#60=PRODUCT_DEFINITION('NONE','NONE',#114,#2);
#61=AXIS2_PLACEMENT_3D('',#115,#116,#117);
#64=LENGTH_MEASURE_WITH_UNIT(LENGTH_MEASURE(1.0),#118);
#67=DIMENSIONAL_EXPONENTS(1.0,0.0,0.0,0.0,0.0,0.0,0.0);
#69=DIMENSIONAL_EXPONENTS(0.0,0.0,0.0,0.0,0.0,0.0,0.0);
#75=CURVE_STYLE('',#119,POSITIVE_LENGTH_MEASURE(1000.0),#120);
#76=VERTEX_POINT('',#121);
#77=CIRCLE('',#122,5.0);
#78=SURFACE_STYLE_USAGE(.BOTH.,#123);
#79=CURVE_STYLE('',#124,POSITIVE_LENGTH_MEASURE(1000.0),#125);
#80=FACE_BOUND('',#126,.T.);
#81=FACE_BOUND('',#127,.T.);
#82=CYLINDRICAL_SURFACE('',#128,5.0);
#83=CURVE_STYLE('',#129,POSITIVE_LENGTH_MEASURE(1000.0),#130);
#84=VERTEX_POINT('',#131);
#85=CIRCLE('',#132,7.0);
#86=SURFACE_STYLE_USAGE(.BOTH.,#133);
#87=CURVE_STYLE('',#134,POSITIVE_LENGTH_MEASURE(1000.0),#135);
#88=CLOSED_SHELL('',(#53,#37,#45,#56,#50));
#89=SURFACE_STYLE_USAGE(.BOTH.,#136);
#90=CURVE_STYLE('',#137,POSITIVE_LENGTH_MEASURE(1000.0),#138);
#91=FACE_OUTER_BOUND('',#139,.T.);
#92=FACE_BOUND('',#140,.T.);
#93=PLANE('',#141);
#94=CURVE_STYLE('',#142,POSITIVE_LENGTH_MEASURE(1000.0),#143);
#95=VERTEX_POINT('',#144);
#96=CIRCLE('',#145,7.0);
#97=SURFACE_STYLE_USAGE(.BOTH.,#146);
#98=CURVE_STYLE('',#147,POSITIVE_LENGTH_MEASURE(1000.0),#148);
#99=FACE_OUTER_BOUND('',#149,.T.);
#100=PLANE('',#150);
#101=SURFACE_STYLE_USAGE(.BOTH.,#151);
#102=CURVE_STYLE('',#152,POSITIVE_LENGTH_MEASURE(1000.0),#153);
#103=FACE_OUTER_BOUND('',#154,.T.);
#104=PLANE('',#155);
#105=SURFACE_STYLE_USAGE(.BOTH.,#156);
#106=CURVE_STYLE('',#157,POSITIVE_LENGTH_MEASURE(1000.0),#158);
#107=FACE_BOUND('',#159,.T.);
#108=FACE_BOUND('',#160,.T.);
#109=CYLINDRICAL_SURFACE('',#161,7.0);
#110=CURVE_STYLE('',#162,POSITIVE_LENGTH_MEASURE(1000.0),#163);
#111=VERTEX_POINT('',#164);
#112=CIRCLE('',#165,5.0);
#113=PRODUCT_CONTEXT('',#20,'mechanical');
#114=PRODUCT_DEFINITION_FORMATION_WITH_SPECIFIED_SOURCE(' ','NONE',#59,.NOT_KNOWN.);
#115=CARTESIAN_POINT('',(0.0,0.0,0.0));
#116=DIRECTION('',(0.0,0.0,1.0));
#117=DIRECTION('',(1.0,0.0,0.0));
#118= (NAMED_UNIT(#67)LENGTH_UNIT()SI_UNIT(.MILLI.,.METRE.));
#119=DRAUGHTING_PRE_DEFINED_CURVE_FONT('continuous');
#120=COLOUR_RGB('',0.501960813999176,0.501960813999176,0.501960813999176);
#121=CARTESIAN_POINT('',(-3.55147571752732E-015,4.99999999999999,58.0));
#122=AXIS2_PLACEMENT_3D('',#167,#168,#169);
#123=SURFACE_SIDE_STYLE('',(#170));
#124=DRAUGHTING_PRE_DEFINED_CURVE_FONT('continuous');
#125=COLOUR_RGB('',0.501960813999176,0.501960813999176,0.501960813999176);
#126=EDGE_LOOP('',(#171));
#127=EDGE_LOOP('',(#172));
#128=AXIS2_PLACEMENT_3D('',#173,#174,#175);
#129=DRAUGHTING_PRE_DEFINED_CURVE_FONT('continuous');
#130=COLOUR_RGB('',0.501960813999176,0.501960813999176,0.501960813999176);
#131=CARTESIAN_POINT('',(-3.06161699786838E-016,7.0,5.0));
#132=AXIS2_PLACEMENT_3D('',#176,#177,#178);
#133=SURFACE_SIDE_STYLE('',(#179));
#134=DRAUGHTING_PRE_DEFINED_CURVE_FONT('continuous');
#135=COLOUR_RGB('',0.501960813999176,0.501960813999176,0.501960813999176);
#136=SURFACE_SIDE_STYLE('',(#180));
#137=DRAUGHTING_PRE_DEFINED_CURVE_FONT('continuous');
#138=COLOUR_RGB('',0.501960813999176,0.501960813999176,0.501960813999176);
#139=EDGE_LOOP('',(#181));
#140=EDGE_LOOP('',(#182));
#141=AXIS2_PLACEMENT_3D('',#183,#184,#185);
#142=DRAUGHTING_PRE_DEFINED_CURVE_FONT('continuous');
#143=COLOUR_RGB('',0.501960813999176,0.501960813999176,0.501960813999176);
#144=CARTESIAN_POINT('',(-8.62816615085482E-032,7.0,8.57252759403147E-016));
#145=AXIS2_PLACEMENT_3D('',#186,#187,#188);
#146=SURFACE_SIDE_STYLE('',(#189));
#147=DRAUGHTING_PRE_DEFINED_CURVE_FONT('continuous');
#148=COLOUR_RGB('',0.501960813999176,0.501960813999176,0.501960813999176);
#149=EDGE_LOOP('',(#190));
#150=AXIS2_PLACEMENT_3D('',#191,#192,#193);
#151=SURFACE_SIDE_STYLE('',(#194));
#152=DRAUGHTING_PRE_DEFINED_CURVE_FONT('continuous');
#153=COLOUR_RGB('',0.501960813999176,0.501960813999176,0.501960813999176);
#154=EDGE_LOOP('',(#195));
#155=AXIS2_PLACEMENT_3D('',#196,#197,#198);
#156=SURFACE_SIDE_STYLE('',(#199));
#157=DRAUGHTING_PRE_DEFINED_CURVE_FONT('continuous');
#158=COLOUR_RGB('',0.501960813999176,0.501960813999176,0.501960813999176);
#159=EDGE_LOOP('',(#200));
#160=EDGE_LOOP('',(#201));
#161=AXIS2_PLACEMENT_3D('',#202,#203,#204);
#162=DRAUGHTING_PRE_DEFINED_CURVE_FONT('continuous');
#163=COLOUR_RGB('',0.501960813999176,0.501960813999176,0.501960813999176);
#164=CARTESIAN_POINT('',(-3.06161699786838E-016,5.0,5.0));
#165=AXIS2_PLACEMENT_3D('',#205,#206,#207);
#167=CARTESIAN_POINT('',(-3.55147571752732E-015,-7.10295143505465E-015,58.0));
#168=DIRECTION('',(6.12323399573677E-017,1.22464679914735E-016,-1.0));
#169=DIRECTION('',(-1.23259516440783E-032,1.0,1.22464679914735E-016));
#170=SURFACE_STYLE_FILL_AREA(#208);
#171=ORIENTED_EDGE('',*,*,#58,.F.);
#172=ORIENTED_EDGE('',*,*,#34,.T.);
#173=CARTESIAN_POINT('',(-1.92881870865708E-015,-3.85763741731416E-015,31.5));
#174=DIRECTION('',(6.12323399573677E-017,1.22464679914735E-016,-1.0));
#175=DIRECTION('',(-1.23259516440783E-032,1.0,1.22464679914735E-016));
#176=CARTESIAN_POINT('',(-3.06161699786838E-016,-6.12323399573677E-016,5.0));
#177=DIRECTION('',(6.12323399573677E-017,1.22464679914735E-016,-1.0));
#178=DIRECTION('',(-1.23259516440783E-032,1.0,1.22464679914735E-016));
#179=SURFACE_STYLE_FILL_AREA(#209);
#180=SURFACE_STYLE_FILL_AREA(#210);
#181=ORIENTED_EDGE('',*,*,#39,.F.);
#182=ORIENTED_EDGE('',*,*,#58,.T.);
#183=CARTESIAN_POINT('',(-3.06161699786838E-016,6.0,5.0));
#184=DIRECTION('',(7.49879891330927E-033,-1.22464679914735E-016,1.0));
#185=DIRECTION('',(1.0,6.12323399573677E-017,0.0));
#186=CARTESIAN_POINT('',(0.0,0.0,0.0));
#187=DIRECTION('',(6.12323399573677E-017,1.22464679914735E-016,-1.0));
#188=DIRECTION('',(-1.23259516440783E-032,1.0,1.22464679914735E-016));
#189=SURFACE_STYLE_FILL_AREA(#211);
#190=ORIENTED_EDGE('',*,*,#47,.T.);
#191=CARTESIAN_POINT('',(-4.31408307542741E-032,3.5,4.28626379701574E-016));
#192=DIRECTION('',(6.12323399573677E-017,1.22464679914735E-016,-1.0));
#193=DIRECTION('',(-1.0,0.0,-6.12323399573677E-017));
#194=SURFACE_STYLE_FILL_AREA(#212);
#195=ORIENTED_EDGE('',*,*,#34,.F.);
#196=CARTESIAN_POINT('',(-3.55147571752732E-015,2.49999999999999,58.0));
#197=DIRECTION('',(7.49879891330927E-033,-1.22464679914735E-016,1.0));
#198=DIRECTION('',(1.0,6.12323399573677E-017,0.0));
#199=SURFACE_STYLE_FILL_AREA(#213);
#200=ORIENTED_EDGE('',*,*,#47,.F.);
#201=ORIENTED_EDGE('',*,*,#39,.T.);
#202=CARTESIAN_POINT('',(-1.53080849893419E-016,-3.06161699786838E-016,2.5));
#203=DIRECTION('',(6.12323399573677E-017,1.22464679914735E-016,-1.0));
#204=DIRECTION('',(-1.23259516440783E-032,1.0,1.22464679914735E-016));
#205=CARTESIAN_POINT('',(-3.06161699786838E-016,-6.12323399573677E-016,5.0));
#206=DIRECTION('',(6.12323399573677E-017,1.22464679914735E-016,-1.0));
#207=DIRECTION('',(-1.23259516440783E-032,1.0,1.22464679914735E-016));
#208=FILL_AREA_STYLE('',(#214));
#209=FILL_AREA_STYLE('',(#215));
#210=FILL_AREA_STYLE('',(#216));
#211=FILL_AREA_STYLE('',(#217));
#212=FILL_AREA_STYLE('',(#218));
#213=FILL_AREA_STYLE('',(#219));
#214=FILL_AREA_STYLE_COLOUR('',#220);
#215=FILL_AREA_STYLE_COLOUR('',#221);
#216=FILL_AREA_STYLE_COLOUR('',#222);
#217=FILL_AREA_STYLE_COLOUR('',#223);
#218=FILL_AREA_STYLE_COLOUR('',#224);
#219=FILL_AREA_STYLE_COLOUR('',#225);
#220=COLOUR_RGB('',0.501960813999176,0.501960813999176,0.501960813999176);
#221=COLOUR_RGB('',0.501960813999176,0.501960813999176,0.501960813999176);
#222=COLOUR_RGB('',0.501960813999176,0.501960813999176,0.501960813999176);
#223=COLOUR_RGB('',0.501960813999176,0.501960813999176,0.501960813999176);
#224=COLOUR_RGB('',0.501960813999176,0.501960813999176,0.501960813999176);
#225=COLOUR_RGB('',0.501960813999176,0.501960813999176,0.501960813999176);
ENDSEC;
END-ISO-10303-21;
