ISO-10303-21;
HEADER;
FILE_DESCRIPTION((''),'1');
FILE_NAME('T:/02_3D_Field-HP\X2\FF71FF6FFF8CFF9F5916\X0\/02_Step_Field-HP\X2\FF71FF6FFF8CFF9F5916\X0\/66_\X2\FF71FF78FF7EFF7BFF98FF70\X0\/OCA42_d24-32.stp','2022-07-28T01:07:55',(''),(''),'Spatial Interop R21 SP3','Kubotek KeyCreator 2011 V10.0.2 (22737)',' ');
FILE_SCHEMA(('automotive_design'));
ENDSEC;
DATA;
#1=MECHANICAL_DESIGN_GEOMETRIC_PRESENTATION_REPRESENTATION(' ',(#10,#11,#12,#13,#14,#15,#16,#17,#18,#19,#20,#21),#6);
#2=PRODUCT_DEFINITION_CONTEXT('',#22,'design');
#3=APPLICATION_PROTOCOL_DEFINITION('INTERNATIONAL STANDARD','automotive_design',1994,#22);
#4=PRODUCT_CATEGORY_RELATIONSHIP('NONE','NONE',#23,#24);
#5=SHAPE_DEFINITION_REPRESENTATION(#25,#26);
#6= (GEOMETRIC_REPRESENTATION_CONTEXT(3)GLOBAL_UNCERTAINTY_ASSIGNED_CONTEXT((#29))GLOBAL_UNIT_ASSIGNED_CONTEXT((#31,#32,#33))REPRESENTATION_CONTEXT('NONE','WORKSPACE'));
#10=STYLED_ITEM('',(#35,#36),#37);
#11=STYLED_ITEM('',(#38,#39),#40);
#12=STYLED_ITEM('',(#41,#42),#43);
#13=STYLED_ITEM('',(#44),#45);
#14=STYLED_ITEM('',(#46),#47);
#15=STYLED_ITEM('',(#48,#49),#50);
#16=STYLED_ITEM('',(#51),#52);
#17=STYLED_ITEM('',(#53,#54),#55);
#18=STYLED_ITEM('',(#56),#57);
#19=STYLED_ITEM('',(#58,#59),#60);
#20=STYLED_ITEM('',(#61),#62);
#21=STYLED_ITEM('',(#63,#64),#65);
#22=APPLICATION_CONTEXT(' ');
#23=PRODUCT_CATEGORY('part','NONE');
#24=PRODUCT_RELATED_PRODUCT_CATEGORY('detail',' ',(#66));
#25=PRODUCT_DEFINITION_SHAPE('NONE','NONE',#67);
#26=ADVANCED_BREP_SHAPE_REPRESENTATION('Unnamed[1]',(#40,#68),#6);
#29=UNCERTAINTY_MEASURE_WITH_UNIT(LENGTH_MEASURE(1.0E-006),#31,'','');
#31= (CONVERSION_BASED_UNIT('MILLIMETRE',#71)LENGTH_UNIT()NAMED_UNIT(#74));
#32= (NAMED_UNIT(#76)PLANE_ANGLE_UNIT()SI_UNIT($,.RADIAN.));
#33= (NAMED_UNIT(#76)SOLID_ANGLE_UNIT()SI_UNIT($,.STERADIAN.));
#35=PRESENTATION_STYLE_ASSIGNMENT((#82));
#36=PRESENTATION_STYLE_ASSIGNMENT((#83));
#37=ADVANCED_FACE('Unnamed[1]',(#84,#85),#86,.T.);
#38=PRESENTATION_STYLE_ASSIGNMENT((#87));
#39=PRESENTATION_STYLE_ASSIGNMENT((#88));
#40=MANIFOLD_SOLID_BREP('Unnamed[1]',#89);
#41=PRESENTATION_STYLE_ASSIGNMENT((#90));
#42=PRESENTATION_STYLE_ASSIGNMENT((#91));
#43=ADVANCED_FACE('Unnamed[1]',(#92,#93),#94,.T.);
#44=PRESENTATION_STYLE_ASSIGNMENT((#95));
#45=EDGE_CURVE('Unnamed[1]',#96,#96,#97,.T.);
#46=PRESENTATION_STYLE_ASSIGNMENT((#98));
#47=EDGE_CURVE('Unnamed[1]',#99,#99,#100,.T.);
#48=PRESENTATION_STYLE_ASSIGNMENT((#101));
#49=PRESENTATION_STYLE_ASSIGNMENT((#102));
#50=ADVANCED_FACE('Unnamed[1]',(#103,#104),#105,.T.);
#51=PRESENTATION_STYLE_ASSIGNMENT((#106));
#52=EDGE_CURVE('Unnamed[1]',#107,#107,#108,.T.);
#53=PRESENTATION_STYLE_ASSIGNMENT((#109));
#54=PRESENTATION_STYLE_ASSIGNMENT((#110));
#55=ADVANCED_FACE('Unnamed[1]',(#111),#112,.T.);
#56=PRESENTATION_STYLE_ASSIGNMENT((#113));
#57=EDGE_CURVE('Unnamed[1]',#114,#114,#115,.T.);
#58=PRESENTATION_STYLE_ASSIGNMENT((#116));
#59=PRESENTATION_STYLE_ASSIGNMENT((#117));
#60=ADVANCED_FACE('Unnamed[1]',(#118),#119,.T.);
#61=PRESENTATION_STYLE_ASSIGNMENT((#120));
#62=EDGE_CURVE('Unnamed[1]',#121,#121,#122,.T.);
#63=PRESENTATION_STYLE_ASSIGNMENT((#123));
#64=PRESENTATION_STYLE_ASSIGNMENT((#124));
#65=ADVANCED_FACE('Unnamed[1]',(#125,#126),#127,.T.);
#66=PRODUCT('Unnamed[1]','Unnamed[1]','PART-Unnamed[1]-DESC',(#128));
#67=PRODUCT_DEFINITION('NONE','NONE',#129,#2);
#68=AXIS2_PLACEMENT_3D('',#130,#131,#132);
#71=LENGTH_MEASURE_WITH_UNIT(LENGTH_MEASURE(1.0),#133);
#74=DIMENSIONAL_EXPONENTS(1.0,0.0,0.0,0.0,0.0,0.0,0.0);
#76=DIMENSIONAL_EXPONENTS(0.0,0.0,0.0,0.0,0.0,0.0,0.0);
#82=SURFACE_STYLE_USAGE(.BOTH.,#134);
#83=CURVE_STYLE('',#135,POSITIVE_LENGTH_MEASURE(1000.0),#136);
#84=FACE_BOUND('',#137,.T.);
#85=FACE_BOUND('',#138,.T.);
#86=CYLINDRICAL_SURFACE('',#139,21.0);
#87=SURFACE_STYLE_USAGE(.BOTH.,#140);
#88=CURVE_STYLE('',#141,POSITIVE_LENGTH_MEASURE(1000.0),#142);
#89=CLOSED_SHELL('',(#55,#37,#43,#50,#65,#60));
#90=SURFACE_STYLE_USAGE(.BOTH.,#143);
#91=CURVE_STYLE('',#144,POSITIVE_LENGTH_MEASURE(1000.0),#145);
#92=FACE_OUTER_BOUND('',#146,.T.);
#93=FACE_BOUND('',#147,.T.);
#94=PLANE('',#148);
#95=CURVE_STYLE('',#149,POSITIVE_LENGTH_MEASURE(1000.0),#150);
#96=VERTEX_POINT('',#151);
#97=CIRCLE('',#152,23.8705904774487);
#98=CURVE_STYLE('',#153,POSITIVE_LENGTH_MEASURE(1000.0),#154);
#99=VERTEX_POINT('',#155);
#100=CIRCLE('',#156,21.0);
#101=SURFACE_STYLE_USAGE(.BOTH.,#157);
#102=CURVE_STYLE('',#158,POSITIVE_LENGTH_MEASURE(1000.0),#159);
#103=FACE_BOUND('',#160,.T.);
#104=FACE_BOUND('',#161,.T.);
#105=CONICAL_SURFACE('',#162,23.4663841519699,0.26179938779915);
#106=CURVE_STYLE('',#163,POSITIVE_LENGTH_MEASURE(1000.0),#164);
#107=VERTEX_POINT('',#165);
#108=CIRCLE('',#166,21.0);
#109=SURFACE_STYLE_USAGE(.BOTH.,#167);
#110=CURVE_STYLE('',#168,POSITIVE_LENGTH_MEASURE(1000.0),#169);
#111=FACE_OUTER_BOUND('',#170,.T.);
#112=PLANE('',#171);
#113=CURVE_STYLE('',#172,POSITIVE_LENGTH_MEASURE(1000.0),#173);
#114=VERTEX_POINT('',#174);
#115=CIRCLE('',#175,23.0621778264911);
#116=SURFACE_STYLE_USAGE(.BOTH.,#176);
#117=CURVE_STYLE('',#177,POSITIVE_LENGTH_MEASURE(1000.0),#178);
#118=FACE_OUTER_BOUND('',#179,.T.);
#119=PLANE('',#180);
#120=CURVE_STYLE('',#181,POSITIVE_LENGTH_MEASURE(1000.0),#182);
#121=VERTEX_POINT('',#183);
#122=CIRCLE('',#184,23.5);
#123=SURFACE_STYLE_USAGE(.BOTH.,#185);
#124=CURVE_STYLE('',#186,POSITIVE_LENGTH_MEASURE(1000.0),#187);
#125=FACE_BOUND('',#188,.T.);
#126=FACE_BOUND('',#189,.T.);
#127=CONICAL_SURFACE('',#190,23.6852952387244,0.654498469497874);
#128=PRODUCT_CONTEXT('',#22,'mechanical');
#129=PRODUCT_DEFINITION_FORMATION_WITH_SPECIFIED_SOURCE(' ','NONE',#66,.NOT_KNOWN.);
#130=CARTESIAN_POINT('',(0.0,0.0,0.0));
#131=DIRECTION('',(0.0,0.0,1.0));
#132=DIRECTION('',(1.0,0.0,0.0));
#133= (NAMED_UNIT(#74)LENGTH_UNIT()SI_UNIT(.MILLI.,.METRE.));
#134=SURFACE_SIDE_STYLE('',(#192));
#135=DRAUGHTING_PRE_DEFINED_CURVE_FONT('continuous');
#136=COLOUR_RGB('',0.0,1.0,0.0);
#137=EDGE_LOOP('',(#193));
#138=EDGE_LOOP('',(#194));
#139=AXIS2_PLACEMENT_3D('',#195,#196,#197);
#140=SURFACE_SIDE_STYLE('',(#198));
#141=DRAUGHTING_PRE_DEFINED_CURVE_FONT('continuous');
#142=COLOUR_RGB('',0.0,1.0,0.0);
#143=SURFACE_SIDE_STYLE('',(#199));
#144=DRAUGHTING_PRE_DEFINED_CURVE_FONT('continuous');
#145=COLOUR_RGB('',0.0,1.0,0.0);
#146=EDGE_LOOP('',(#200));
#147=EDGE_LOOP('',(#201));
#148=AXIS2_PLACEMENT_3D('',#202,#203,#204);
#149=DRAUGHTING_PRE_DEFINED_CURVE_FONT('continuous');
#150=COLOUR_RGB('',0.0,1.0,0.0);
#151=CARTESIAN_POINT('',(-2.9572949284467E-017,23.8705904774487,0.482962913144537));
#152=AXIS2_PLACEMENT_3D('',#205,#206,#207);
#153=DRAUGHTING_PRE_DEFINED_CURVE_FONT('continuous');
#154=COLOUR_RGB('',0.0,1.0,0.0);
#155=CARTESIAN_POINT('',(-4.80673868665336E-015,21.0,78.5));
#156=AXIS2_PLACEMENT_3D('',#208,#209,#210);
#157=SURFACE_SIDE_STYLE('',(#211));
#158=DRAUGHTING_PRE_DEFINED_CURVE_FONT('continuous');
#159=COLOUR_RGB('',0.0,1.0,0.0);
#160=EDGE_LOOP('',(#212));
#161=EDGE_LOOP('',(#213));
#162=AXIS2_PLACEMENT_3D('',#214,#215,#216);
#163=DRAUGHTING_PRE_DEFINED_CURVE_FONT('continuous');
#164=COLOUR_RGB('',0.0,1.0,0.0);
#165=CARTESIAN_POINT('',(-2.14313189850787E-016,21.0,3.5));
#166=AXIS2_PLACEMENT_3D('',#217,#218,#219);
#167=SURFACE_SIDE_STYLE('',(#220));
#168=DRAUGHTING_PRE_DEFINED_CURVE_FONT('continuous');
#169=COLOUR_RGB('',0.0,1.0,0.0);
#170=EDGE_LOOP('',(#221));
#171=AXIS2_PLACEMENT_3D('',#222,#223,#224);
#172=DRAUGHTING_PRE_DEFINED_CURVE_FONT('continuous');
#173=COLOUR_RGB('',0.0,1.0,0.0);
#174=CARTESIAN_POINT('',(-2.14313189850787E-016,23.0621778264911,3.5));
#175=AXIS2_PLACEMENT_3D('',#225,#226,#227);
#176=SURFACE_SIDE_STYLE('',(#228));
#177=DRAUGHTING_PRE_DEFINED_CURVE_FONT('continuous');
#178=COLOUR_RGB('',0.0,1.0,0.0);
#179=EDGE_LOOP('',(#229));
#180=AXIS2_PLACEMENT_3D('',#230,#231,#232);
#181=DRAUGHTING_PRE_DEFINED_CURVE_FONT('continuous');
#182=COLOUR_RGB('',0.0,1.0,0.0);
#183=CARTESIAN_POINT('',(-2.95822839457879E-031,23.5,2.66453525910038E-015));
#184=AXIS2_PLACEMENT_3D('',#233,#234,#235);
#185=SURFACE_SIDE_STYLE('',(#236));
#186=DRAUGHTING_PRE_DEFINED_CURVE_FONT('continuous');
#187=COLOUR_RGB('',0.0,1.0,0.0);
#188=EDGE_LOOP('',(#237));
#189=EDGE_LOOP('',(#238));
#190=AXIS2_PLACEMENT_3D('',#239,#240,#241);
#192=SURFACE_STYLE_FILL_AREA(#242);
#193=ORIENTED_EDGE('',*,*,#52,.F.);
#194=ORIENTED_EDGE('',*,*,#47,.T.);
#195=CARTESIAN_POINT('',(-2.51052593825207E-015,-5.02105187650415E-015,41.0));
#196=DIRECTION('',(6.12323399573677E-017,1.22464679914735E-016,-1.0));
#197=DIRECTION('',(-1.23259516440783E-032,1.0,1.22464679914735E-016));
#198=SURFACE_STYLE_FILL_AREA(#243);
#199=SURFACE_STYLE_FILL_AREA(#244);
#200=ORIENTED_EDGE('',*,*,#57,.F.);
#201=ORIENTED_EDGE('',*,*,#52,.T.);
#202=CARTESIAN_POINT('',(-2.14313189850787E-016,22.0310889132455,3.5));
#203=DIRECTION('',(-6.12323399573677E-017,-1.22464679914735E-016,1.0));
#204=DIRECTION('',(1.23259516440783E-032,-1.0,-1.22464679914735E-016));
#205=CARTESIAN_POINT('',(-2.95729492844667E-017,-5.91458985689334E-017,0.482962913144534));
#206=DIRECTION('',(6.12323399573677E-017,1.22464679914735E-016,-1.0));
#207=DIRECTION('',(-1.23259516440783E-032,1.0,1.22464679914735E-016));
#208=CARTESIAN_POINT('',(-4.80673868665336E-015,-9.61347737330672E-015,78.5));
#209=DIRECTION('',(6.12323399573677E-017,1.22464679914735E-016,-1.0));
#210=DIRECTION('',(-1.23259516440783E-032,1.0,1.22464679914735E-016));
#211=SURFACE_STYLE_FILL_AREA(#245);
#212=ORIENTED_EDGE('',*,*,#45,.F.);
#213=ORIENTED_EDGE('',*,*,#57,.T.);
#214=CARTESIAN_POINT('',(-1.21943069567627E-016,-2.43886139135253E-016,1.99148145657227));
#215=DIRECTION('',(6.12323399573677E-017,1.22464679914735E-016,-1.0));
#216=DIRECTION('',(-1.23259516440783E-032,1.0,1.22464679914735E-016));
#217=CARTESIAN_POINT('',(-2.14313189850787E-016,-4.28626379701574E-016,3.5));
#218=DIRECTION('',(6.12323399573677E-017,1.22464679914735E-016,-1.0));
#219=DIRECTION('',(-1.23259516440783E-032,1.0,1.22464679914735E-016));
#220=SURFACE_STYLE_FILL_AREA(#246);
#221=ORIENTED_EDGE('',*,*,#47,.F.);
#222=CARTESIAN_POINT('',(-4.80673868665336E-015,10.5,78.5));
#223=DIRECTION('',(-6.12323399573677E-017,-1.22464679914735E-016,1.0));
#224=DIRECTION('',(1.23259516440783E-032,-1.0,-1.22464679914735E-016));
#225=CARTESIAN_POINT('',(-2.14313189850787E-016,-4.28626379701574E-016,3.5));
#226=DIRECTION('',(6.12323399573677E-017,1.22464679914735E-016,-1.0));
#227=DIRECTION('',(-1.23259516440783E-032,1.0,1.22464679914735E-016));
#228=SURFACE_STYLE_FILL_AREA(#247);
#229=ORIENTED_EDGE('',*,*,#62,.T.);
#230=CARTESIAN_POINT('',(-1.4791141972894E-031,11.75,1.33226762955019E-015));
#231=DIRECTION('',(6.12323399573677E-017,1.22464679914735E-016,-1.0));
#232=DIRECTION('',(-1.23259516440783E-032,1.0,1.22464679914735E-016));
#233=CARTESIAN_POINT('',(0.0,0.0,0.0));
#234=DIRECTION('',(6.12323399573677E-017,1.22464679914735E-016,-1.0));
#235=DIRECTION('',(-1.23259516440783E-032,1.0,1.22464679914735E-016));
#236=SURFACE_STYLE_FILL_AREA(#248);
#237=ORIENTED_EDGE('',*,*,#62,.F.);
#238=ORIENTED_EDGE('',*,*,#45,.T.);
#239=CARTESIAN_POINT('',(-1.47864746422334E-017,-2.95729492844667E-017,0.241481456572267));
#240=DIRECTION('',(-6.12323399573677E-017,-1.22464679914735E-016,1.0));
#241=DIRECTION('',(-1.23259516440783E-032,1.0,1.22464679914735E-016));
#242=FILL_AREA_STYLE('',(#249));
#243=FILL_AREA_STYLE('',(#250));
#244=FILL_AREA_STYLE('',(#251));
#245=FILL_AREA_STYLE('',(#252));
#246=FILL_AREA_STYLE('',(#253));
#247=FILL_AREA_STYLE('',(#254));
#248=FILL_AREA_STYLE('',(#255));
#249=FILL_AREA_STYLE_COLOUR('',#256);
#250=FILL_AREA_STYLE_COLOUR('',#257);
#251=FILL_AREA_STYLE_COLOUR('',#258);
#252=FILL_AREA_STYLE_COLOUR('',#259);
#253=FILL_AREA_STYLE_COLOUR('',#260);
#254=FILL_AREA_STYLE_COLOUR('',#261);
#255=FILL_AREA_STYLE_COLOUR('',#262);
#256=COLOUR_RGB('',0.0,1.0,0.0);
#257=COLOUR_RGB('',0.0,1.0,0.0);
#258=COLOUR_RGB('',0.0,1.0,0.0);
#259=COLOUR_RGB('',0.0,1.0,0.0);
#260=COLOUR_RGB('',0.0,1.0,0.0);
#261=COLOUR_RGB('',0.0,1.0,0.0);
#262=COLOUR_RGB('',0.0,1.0,0.0);
ENDSEC;
END-ISO-10303-21;
