ISO-10303-21;
HEADER;
FILE_DESCRIPTION((''),'1');
FILE_NAME('V:/02_3D_Field-HP\X2\FF71FF6FFF8CFF9F5916\X0\2013/02_Step_Field-HP\X2\FF71FF6FFF8CFF9F5916\X0\2013/66_\X2\FF71FF78FF7EFF7BFF98FF70\X0\/OCA32-d17-28.stp','2019-03-13T00:02:50',(''),(''),'Spatial Interop R21 SP3','Kubotek KeyCreator 2011 V10.0.2 (22737)',' ');
FILE_SCHEMA(('automotive_design'));
ENDSEC;
DATA;
#1=MECHANICAL_DESIGN_GEOMETRIC_PRESENTATION_REPRESENTATION(' ',(#10,#11,#12,#13,#14,#15,#16,#17,#18,#19,#20,#21,#22,#23),#6);
#2=PRODUCT_DEFINITION_CONTEXT('',#24,'design');
#3=APPLICATION_PROTOCOL_DEFINITION('INTERNATIONAL STANDARD','automotive_design',1994,#24);
#4=PRODUCT_CATEGORY_RELATIONSHIP('NONE','NONE',#25,#26);
#5=SHAPE_DEFINITION_REPRESENTATION(#27,#28);
#6= (GEOMETRIC_REPRESENTATION_CONTEXT(3)GLOBAL_UNCERTAINTY_ASSIGNED_CONTEXT((#31))GLOBAL_UNIT_ASSIGNED_CONTEXT((#33,#34,#35))REPRESENTATION_CONTEXT('NONE','WORKSPACE'));
#10=STYLED_ITEM('',(#37,#38),#39);
#11=STYLED_ITEM('',(#40,#41),#42);
#12=STYLED_ITEM('',(#43,#44),#45);
#13=STYLED_ITEM('',(#46,#47),#48);
#14=STYLED_ITEM('',(#49,#50),#51);
#15=STYLED_ITEM('',(#52,#53),#54);
#16=STYLED_ITEM('',(#55),#56);
#17=STYLED_ITEM('',(#57),#58);
#18=STYLED_ITEM('',(#59,#60),#61);
#19=STYLED_ITEM('',(#62,#63),#64);
#20=STYLED_ITEM('',(#65),#66);
#21=STYLED_ITEM('',(#67),#68);
#22=STYLED_ITEM('',(#69),#70);
#23=STYLED_ITEM('',(#71),#72);
#24=APPLICATION_CONTEXT(' ');
#25=PRODUCT_CATEGORY('part','NONE');
#26=PRODUCT_RELATED_PRODUCT_CATEGORY('detail',' ',(#73));
#27=PRODUCT_DEFINITION_SHAPE('NONE','NONE',#74);
#28=ADVANCED_BREP_SHAPE_REPRESENTATION('Unnamed[1]',(#61,#75),#6);
#31=UNCERTAINTY_MEASURE_WITH_UNIT(LENGTH_MEASURE(1.0E-006),#33,'','');
#33= (CONVERSION_BASED_UNIT('MILLIMETRE',#78)LENGTH_UNIT()NAMED_UNIT(#81));
#34= (NAMED_UNIT(#83)PLANE_ANGLE_UNIT()SI_UNIT($,.RADIAN.));
#35= (NAMED_UNIT(#83)SOLID_ANGLE_UNIT()SI_UNIT($,.STERADIAN.));
#37=PRESENTATION_STYLE_ASSIGNMENT((#89));
#38=PRESENTATION_STYLE_ASSIGNMENT((#90));
#39=ADVANCED_FACE('Unnamed[1]',(#91),#92,.T.);
#40=PRESENTATION_STYLE_ASSIGNMENT((#93));
#41=PRESENTATION_STYLE_ASSIGNMENT((#94));
#42=ADVANCED_FACE('Unnamed[1]',(#95,#96),#97,.T.);
#43=PRESENTATION_STYLE_ASSIGNMENT((#98));
#44=PRESENTATION_STYLE_ASSIGNMENT((#99));
#45=ADVANCED_FACE('Unnamed[1]',(#100),#101,.T.);
#46=PRESENTATION_STYLE_ASSIGNMENT((#102));
#47=PRESENTATION_STYLE_ASSIGNMENT((#103));
#48=ADVANCED_FACE('Unnamed[1]',(#104,#105),#106,.T.);
#49=PRESENTATION_STYLE_ASSIGNMENT((#107));
#50=PRESENTATION_STYLE_ASSIGNMENT((#108));
#51=ADVANCED_FACE('Unnamed[1]',(#109,#110),#111,.T.);
#52=PRESENTATION_STYLE_ASSIGNMENT((#112));
#53=PRESENTATION_STYLE_ASSIGNMENT((#113));
#54=ADVANCED_FACE('Unnamed[1]',(#114,#115),#116,.T.);
#55=PRESENTATION_STYLE_ASSIGNMENT((#117));
#56=EDGE_CURVE('Unnamed[1]',#118,#118,#119,.T.);
#57=PRESENTATION_STYLE_ASSIGNMENT((#120));
#58=EDGE_CURVE('Unnamed[1]',#121,#121,#122,.T.);
#59=PRESENTATION_STYLE_ASSIGNMENT((#123));
#60=PRESENTATION_STYLE_ASSIGNMENT((#124));
#61=MANIFOLD_SOLID_BREP('Unnamed[1]',#125);
#62=PRESENTATION_STYLE_ASSIGNMENT((#126));
#63=PRESENTATION_STYLE_ASSIGNMENT((#127));
#64=ADVANCED_FACE('Unnamed[1]',(#128,#129),#130,.T.);
#65=PRESENTATION_STYLE_ASSIGNMENT((#131));
#66=EDGE_CURVE('Unnamed[1]',#132,#132,#133,.T.);
#67=PRESENTATION_STYLE_ASSIGNMENT((#134));
#68=EDGE_CURVE('Unnamed[1]',#135,#135,#136,.T.);
#69=PRESENTATION_STYLE_ASSIGNMENT((#137));
#70=EDGE_CURVE('Unnamed[1]',#138,#138,#139,.T.);
#71=PRESENTATION_STYLE_ASSIGNMENT((#140));
#72=EDGE_CURVE('Unnamed[1]',#141,#141,#142,.T.);
#73=PRODUCT('Unnamed[1]','Unnamed[1]','PART-Unnamed[1]-DESC',(#143));
#74=PRODUCT_DEFINITION('NONE','NONE',#144,#2);
#75=AXIS2_PLACEMENT_3D('',#145,#146,#147);
#78=LENGTH_MEASURE_WITH_UNIT(LENGTH_MEASURE(1.0),#148);
#81=DIMENSIONAL_EXPONENTS(1.0,0.0,0.0,0.0,0.0,0.0,0.0);
#83=DIMENSIONAL_EXPONENTS(0.0,0.0,0.0,0.0,0.0,0.0,0.0);
#89=SURFACE_STYLE_USAGE(.BOTH.,#149);
#90=CURVE_STYLE('',#150,POSITIVE_LENGTH_MEASURE(1000.0),#151);
#91=FACE_OUTER_BOUND('',#152,.T.);
#92=PLANE('',#153);
#93=SURFACE_STYLE_USAGE(.BOTH.,#154);
#94=CURVE_STYLE('',#155,POSITIVE_LENGTH_MEASURE(1000.0),#156);
#95=FACE_BOUND('',#157,.T.);
#96=FACE_BOUND('',#158,.T.);
#97=CYLINDRICAL_SURFACE('',#159,18.5);
#98=SURFACE_STYLE_USAGE(.BOTH.,#160);
#99=CURVE_STYLE('',#161,POSITIVE_LENGTH_MEASURE(1000.0),#162);
#100=FACE_OUTER_BOUND('',#163,.T.);
#101=PLANE('',#164);
#102=SURFACE_STYLE_USAGE(.BOTH.,#165);
#103=CURVE_STYLE('',#166,POSITIVE_LENGTH_MEASURE(1000.0),#167);
#104=FACE_BOUND('',#168,.T.);
#105=FACE_BOUND('',#169,.T.);
#106=CYLINDRICAL_SURFACE('',#170,16.0);
#107=SURFACE_STYLE_USAGE(.BOTH.,#171);
#108=CURVE_STYLE('',#172,POSITIVE_LENGTH_MEASURE(1000.0),#173);
#109=FACE_OUTER_BOUND('',#174,.T.);
#110=FACE_BOUND('',#175,.T.);
#111=PLANE('',#176);
#112=SURFACE_STYLE_USAGE(.BOTH.,#177);
#113=CURVE_STYLE('',#178,POSITIVE_LENGTH_MEASURE(1000.0),#179);
#114=FACE_BOUND('',#180,.T.);
#115=FACE_BOUND('',#181,.T.);
#116=CONICAL_SURFACE('',#182,18.1650635094611,0.261799387799157);
#117=CURVE_STYLE('',#183,POSITIVE_LENGTH_MEASURE(1000.0),#184);
#118=VERTEX_POINT('',#185);
#119=CIRCLE('',#186,17.8301270189222);
#120=CURVE_STYLE('',#187,POSITIVE_LENGTH_MEASURE(1000.0),#188);
#121=VERTEX_POINT('',#189);
#122=CIRCLE('',#190,18.0);
#123=SURFACE_STYLE_USAGE(.BOTH.,#191);
#124=CURVE_STYLE('',#192,POSITIVE_LENGTH_MEASURE(1000.0),#193);
#125=CLOSED_SHELL('',(#45,#48,#51,#54,#42,#64,#39));
#126=SURFACE_STYLE_USAGE(.BOTH.,#194);
#127=CURVE_STYLE('',#195,POSITIVE_LENGTH_MEASURE(1000.0),#196);
#128=FACE_BOUND('',#197,.T.);
#129=FACE_BOUND('',#198,.T.);
#130=CONICAL_SURFACE('',#199,18.25,0.785398163397448);
#131=CURVE_STYLE('',#200,POSITIVE_LENGTH_MEASURE(1000.0),#201);
#132=VERTEX_POINT('',#202);
#133=CIRCLE('',#203,16.0);
#134=CURVE_STYLE('',#204,POSITIVE_LENGTH_MEASURE(1000.0),#205);
#135=VERTEX_POINT('',#206);
#136=CIRCLE('',#207,16.0);
#137=CURVE_STYLE('',#208,POSITIVE_LENGTH_MEASURE(1000.0),#209);
#138=VERTEX_POINT('',#210);
#139=CIRCLE('',#211,18.5);
#140=CURVE_STYLE('',#212,POSITIVE_LENGTH_MEASURE(1000.0),#213);
#141=VERTEX_POINT('',#214);
#142=CIRCLE('',#215,18.5);
#143=PRODUCT_CONTEXT('',#24,'mechanical');
#144=PRODUCT_DEFINITION_FORMATION_WITH_SPECIFIED_SOURCE(' ','NONE',#73,.NOT_KNOWN.);
#145=CARTESIAN_POINT('',(0.0,0.0,0.0));
#146=DIRECTION('',(0.0,0.0,1.0));
#147=DIRECTION('',(1.0,0.0,0.0));
#148= (NAMED_UNIT(#81)LENGTH_UNIT()SI_UNIT(.MILLI.,.METRE.));
#149=SURFACE_SIDE_STYLE('',(#217));
#150=DRAUGHTING_PRE_DEFINED_CURVE_FONT('continuous');
#151=COLOUR_RGB('',0.0,1.0,0.0);
#152=EDGE_LOOP('',(#218));
#153=AXIS2_PLACEMENT_3D('',#219,#220,#221);
#154=SURFACE_SIDE_STYLE('',(#222));
#155=DRAUGHTING_PRE_DEFINED_CURVE_FONT('continuous');
#156=COLOUR_RGB('',0.0,1.0,0.0);
#157=EDGE_LOOP('',(#223));
#158=EDGE_LOOP('',(#224));
#159=AXIS2_PLACEMENT_3D('',#225,#226,#227);
#160=SURFACE_SIDE_STYLE('',(#228));
#161=DRAUGHTING_PRE_DEFINED_CURVE_FONT('continuous');
#162=COLOUR_RGB('',0.0,1.0,0.0);
#163=EDGE_LOOP('',(#229));
#164=AXIS2_PLACEMENT_3D('',#230,#231,#232);
#165=SURFACE_SIDE_STYLE('',(#233));
#166=DRAUGHTING_PRE_DEFINED_CURVE_FONT('continuous');
#167=COLOUR_RGB('',0.0,1.0,0.0);
#168=EDGE_LOOP('',(#234));
#169=EDGE_LOOP('',(#235));
#170=AXIS2_PLACEMENT_3D('',#236,#237,#238);
#171=SURFACE_SIDE_STYLE('',(#239));
#172=DRAUGHTING_PRE_DEFINED_CURVE_FONT('continuous');
#173=COLOUR_RGB('',0.0,1.0,0.0);
#174=EDGE_LOOP('',(#240));
#175=EDGE_LOOP('',(#241));
#176=AXIS2_PLACEMENT_3D('',#242,#243,#244);
#177=SURFACE_SIDE_STYLE('',(#245));
#178=DRAUGHTING_PRE_DEFINED_CURVE_FONT('continuous');
#179=COLOUR_RGB('',0.0,1.0,0.0);
#180=EDGE_LOOP('',(#246));
#181=EDGE_LOOP('',(#247));
#182=AXIS2_PLACEMENT_3D('',#248,#249,#250);
#183=DRAUGHTING_PRE_DEFINED_CURVE_FONT('continuous');
#184=COLOUR_RGB('',0.0,1.0,0.0);
#185=CARTESIAN_POINT('',(-2.14313189850787E-016,17.8301270189222,3.5));
#186=AXIS2_PLACEMENT_3D('',#251,#252,#253);
#187=DRAUGHTING_PRE_DEFINED_CURVE_FONT('continuous');
#188=COLOUR_RGB('',0.0,1.0,0.0);
#189=CARTESIAN_POINT('',(-2.2186712959341E-031,18.0,2.22044604925031E-015));
#190=AXIS2_PLACEMENT_3D('',#254,#255,#256);
#191=SURFACE_SIDE_STYLE('',(#257));
#192=DRAUGHTING_PRE_DEFINED_CURVE_FONT('continuous');
#193=COLOUR_RGB('',0.0,1.0,0.0);
#194=SURFACE_SIDE_STYLE('',(#258));
#195=DRAUGHTING_PRE_DEFINED_CURVE_FONT('continuous');
#196=COLOUR_RGB('',0.0,1.0,0.0);
#197=EDGE_LOOP('',(#259));
#198=EDGE_LOOP('',(#260));
#199=AXIS2_PLACEMENT_3D('',#261,#262,#263);
#200=DRAUGHTING_PRE_DEFINED_CURVE_FONT('continuous');
#201=COLOUR_RGB('',0.0,1.0,0.0);
#202=CARTESIAN_POINT('',(-2.14313189850787E-016,16.0,3.5));
#203=AXIS2_PLACEMENT_3D('',#264,#265,#266);
#204=DRAUGHTING_PRE_DEFINED_CURVE_FONT('continuous');
#205=COLOUR_RGB('',0.0,1.0,0.0);
#206=CARTESIAN_POINT('',(-4.80673868665336E-015,16.0,78.5));
#207=AXIS2_PLACEMENT_3D('',#267,#268,#269);
#208=DRAUGHTING_PRE_DEFINED_CURVE_FONT('continuous');
#209=COLOUR_RGB('',0.0,1.0,0.0);
#210=CARTESIAN_POINT('',(-3.06161699786841E-017,18.5,0.500000000000002));
#211=AXIS2_PLACEMENT_3D('',#270,#271,#272);
#212=DRAUGHTING_PRE_DEFINED_CURVE_FONT('continuous');
#213=COLOUR_RGB('',0.0,1.0,0.0);
#214=CARTESIAN_POINT('',(-6.12323399573783E-017,18.5,1.00000000000017));
#215=AXIS2_PLACEMENT_3D('',#273,#274,#275);
#217=SURFACE_STYLE_FILL_AREA(#276);
#218=ORIENTED_EDGE('',*,*,#58,.T.);
#219=CARTESIAN_POINT('',(-1.23259516440783E-031,9.00000000000001,8.88178419700125E-016));
#220=DIRECTION('',(6.12323399573677E-017,1.22464679914735E-016,-1.0));
#221=DIRECTION('',(-1.23259516440783E-032,1.0,1.22464679914735E-016));
#222=SURFACE_STYLE_FILL_AREA(#277);
#223=ORIENTED_EDGE('',*,*,#70,.F.);
#224=ORIENTED_EDGE('',*,*,#72,.T.);
#225=CARTESIAN_POINT('',(-4.5924254968031E-017,-9.18485099360619E-017,0.750000000000085));
#226=DIRECTION('',(6.12323399573677E-017,1.22464679914735E-016,-1.0));
#227=DIRECTION('',(-1.23259516440783E-032,1.0,1.22464679914735E-016));
#228=SURFACE_STYLE_FILL_AREA(#278);
#229=ORIENTED_EDGE('',*,*,#68,.F.);
#230=CARTESIAN_POINT('',(-4.80673868665336E-015,8.0,78.5));
#231=DIRECTION('',(-6.12323399573677E-017,-1.22464679914735E-016,1.0));
#232=DIRECTION('',(1.23259516440783E-032,-1.0,-1.22464679914735E-016));
#233=SURFACE_STYLE_FILL_AREA(#279);
#234=ORIENTED_EDGE('',*,*,#66,.F.);
#235=ORIENTED_EDGE('',*,*,#68,.T.);
#236=CARTESIAN_POINT('',(-2.51052593825207E-015,-5.02105187650415E-015,41.0));
#237=DIRECTION('',(6.12323399573676E-017,1.22464679914735E-016,-1.0));
#238=DIRECTION('',(-1.23259516440783E-032,1.0,1.22464679914735E-016));
#239=SURFACE_STYLE_FILL_AREA(#280);
#240=ORIENTED_EDGE('',*,*,#56,.F.);
#241=ORIENTED_EDGE('',*,*,#66,.T.);
#242=CARTESIAN_POINT('',(-2.14313189850787E-016,16.9150635094611,3.5));
#243=DIRECTION('',(-6.12323399573677E-017,-1.22464679914735E-016,1.0));
#244=DIRECTION('',(1.23259516440783E-032,-1.0,-1.22464679914735E-016));
#245=SURFACE_STYLE_FILL_AREA(#281);
#246=ORIENTED_EDGE('',*,*,#72,.F.);
#247=ORIENTED_EDGE('',*,*,#56,.T.);
#248=CARTESIAN_POINT('',(-1.37772764904082E-016,-2.75545529808165E-016,2.25000000000009));
#249=DIRECTION('',(6.12323399573677E-017,1.22464679914735E-016,-1.0));
#250=DIRECTION('',(-1.23259516440783E-032,1.0,1.22464679914735E-016));
#251=CARTESIAN_POINT('',(-2.14313189850787E-016,-4.28626379701574E-016,3.5));
#252=DIRECTION('',(6.12323399573676E-017,1.22464679914735E-016,-1.0));
#253=DIRECTION('',(-1.23259516440783E-032,1.0,1.22464679914735E-016));
#254=CARTESIAN_POINT('',(0.0,0.0,0.0));
#255=DIRECTION('',(6.12323399573677E-017,1.22464679914735E-016,-1.0));
#256=DIRECTION('',(-1.23259516440783E-032,1.0,1.22464679914735E-016));
#257=SURFACE_STYLE_FILL_AREA(#282);
#258=SURFACE_STYLE_FILL_AREA(#283);
#259=ORIENTED_EDGE('',*,*,#58,.F.);
#260=ORIENTED_EDGE('',*,*,#70,.T.);
#261=CARTESIAN_POINT('',(-1.53080849893419E-017,-3.06161699786838E-017,0.25));
#262=DIRECTION('',(-6.12323399573677E-017,-1.22464679914735E-016,1.0));
#263=DIRECTION('',(-1.23259516440783E-032,1.0,1.22464679914735E-016));
#264=CARTESIAN_POINT('',(-2.14313189850787E-016,-4.28626379701574E-016,3.5));
#265=DIRECTION('',(6.12323399573676E-017,1.22464679914735E-016,-1.0));
#266=DIRECTION('',(-1.23259516440783E-032,1.0,1.22464679914735E-016));
#267=CARTESIAN_POINT('',(-4.80673868665336E-015,-9.61347737330672E-015,78.5));
#268=DIRECTION('',(6.12323399573676E-017,1.22464679914735E-016,-1.0));
#269=DIRECTION('',(-1.23259516440783E-032,1.0,1.22464679914735E-016));
#270=CARTESIAN_POINT('',(-3.06161699786838E-017,-6.12323399573676E-017,0.5));
#271=DIRECTION('',(6.12323399573677E-017,1.22464679914735E-016,-1.0));
#272=DIRECTION('',(-1.23259516440783E-032,1.0,1.22464679914735E-016));
#273=CARTESIAN_POINT('',(-6.12323399573781E-017,-1.22464679914756E-016,1.00000000000017));
#274=DIRECTION('',(6.12323399573677E-017,1.22464679914735E-016,-1.0));
#275=DIRECTION('',(-1.23259516440783E-032,1.0,1.22464679914735E-016));
#276=FILL_AREA_STYLE('',(#284));
#277=FILL_AREA_STYLE('',(#285));
#278=FILL_AREA_STYLE('',(#286));
#279=FILL_AREA_STYLE('',(#287));
#280=FILL_AREA_STYLE('',(#288));
#281=FILL_AREA_STYLE('',(#289));
#282=FILL_AREA_STYLE('',(#290));
#283=FILL_AREA_STYLE('',(#291));
#284=FILL_AREA_STYLE_COLOUR('',#292);
#285=FILL_AREA_STYLE_COLOUR('',#293);
#286=FILL_AREA_STYLE_COLOUR('',#294);
#287=FILL_AREA_STYLE_COLOUR('',#295);
#288=FILL_AREA_STYLE_COLOUR('',#296);
#289=FILL_AREA_STYLE_COLOUR('',#297);
#290=FILL_AREA_STYLE_COLOUR('',#298);
#291=FILL_AREA_STYLE_COLOUR('',#299);
#292=COLOUR_RGB('',0.0,1.0,0.0);
#293=COLOUR_RGB('',0.0,1.0,0.0);
#294=COLOUR_RGB('',0.0,1.0,0.0);
#295=COLOUR_RGB('',0.0,1.0,0.0);
#296=COLOUR_RGB('',0.0,1.0,0.0);
#297=COLOUR_RGB('',0.0,1.0,0.0);
#298=COLOUR_RGB('',0.0,1.0,0.0);
#299=COLOUR_RGB('',0.0,1.0,0.0);
ENDSEC;
END-ISO-10303-21;
