ISO-10303-21;
HEADER;
FILE_DESCRIPTION((''),'1');
FILE_NAME('T:/02_3D_Field-HP\X2\FF71FF6FFF8CFF9F5916\X0\/02_Step_Field-HP\X2\FF71FF6FFF8CFF9F5916\X0\/66_\X2\FF71FF78FF7EFF7BFF98FF70\X0\/OCA32-20.stp','2022-06-14T03:43:29',(''),(''),'Spatial Interop R21 SP3','Kubotek KeyCreator 2011 V10.0.2 (22737)',' ');
FILE_SCHEMA(('automotive_design'));
ENDSEC;
DATA;
#1=MECHANICAL_DESIGN_GEOMETRIC_PRESENTATION_REPRESENTATION(' ',(#10,#11,#12,#13,#14,#15,#16,#17,#18,#19,#20,#21,#22,#23,#24,#25,#26),#6);
#2=PRODUCT_DEFINITION_CONTEXT('',#27,'design');
#3=APPLICATION_PROTOCOL_DEFINITION('INTERNATIONAL STANDARD','automotive_design',1994,#27);
#4=PRODUCT_CATEGORY_RELATIONSHIP('NONE','NONE',#28,#29);
#5=SHAPE_DEFINITION_REPRESENTATION(#30,#31);
#6= (GEOMETRIC_REPRESENTATION_CONTEXT(3)GLOBAL_UNCERTAINTY_ASSIGNED_CONTEXT((#34))GLOBAL_UNIT_ASSIGNED_CONTEXT((#36,#37,#38))REPRESENTATION_CONTEXT('NONE','WORKSPACE'));
#10=STYLED_ITEM('',(#40),#41);
#11=STYLED_ITEM('',(#42,#43),#44);
#12=STYLED_ITEM('',(#45),#46);
#13=STYLED_ITEM('',(#47),#48);
#14=STYLED_ITEM('',(#49),#50);
#15=STYLED_ITEM('',(#51),#52);
#16=STYLED_ITEM('',(#53,#54),#55);
#17=STYLED_ITEM('',(#56,#57),#58);
#18=STYLED_ITEM('',(#59),#60);
#19=STYLED_ITEM('',(#61,#62),#63);
#20=STYLED_ITEM('',(#64,#65),#66);
#21=STYLED_ITEM('',(#67,#68),#69);
#22=STYLED_ITEM('',(#70,#71),#72);
#23=STYLED_ITEM('',(#73),#74);
#24=STYLED_ITEM('',(#75,#76),#77);
#25=STYLED_ITEM('',(#78),#79);
#26=STYLED_ITEM('',(#80,#81),#82);
#27=APPLICATION_CONTEXT(' ');
#28=PRODUCT_CATEGORY('part','NONE');
#29=PRODUCT_RELATED_PRODUCT_CATEGORY('detail',' ',(#83));
#30=PRODUCT_DEFINITION_SHAPE('NONE','NONE',#84);
#31=ADVANCED_BREP_SHAPE_REPRESENTATION('Unnamed[1]',(#66,#85),#6);
#34=UNCERTAINTY_MEASURE_WITH_UNIT(LENGTH_MEASURE(1.0E-006),#36,'','');
#36= (CONVERSION_BASED_UNIT('MILLIMETRE',#88)LENGTH_UNIT()NAMED_UNIT(#91));
#37= (NAMED_UNIT(#93)PLANE_ANGLE_UNIT()SI_UNIT($,.RADIAN.));
#38= (NAMED_UNIT(#93)SOLID_ANGLE_UNIT()SI_UNIT($,.STERADIAN.));
#40=PRESENTATION_STYLE_ASSIGNMENT((#99));
#41=EDGE_CURVE('Unnamed[1]',#100,#100,#101,.T.);
#42=PRESENTATION_STYLE_ASSIGNMENT((#102));
#43=PRESENTATION_STYLE_ASSIGNMENT((#103));
#44=ADVANCED_FACE('Unnamed[1]',(#104,#105),#106,.T.);
#45=PRESENTATION_STYLE_ASSIGNMENT((#107));
#46=EDGE_CURVE('Unnamed[1]',#108,#108,#109,.T.);
#47=PRESENTATION_STYLE_ASSIGNMENT((#110));
#48=EDGE_CURVE('Unnamed[1]',#111,#111,#112,.T.);
#49=PRESENTATION_STYLE_ASSIGNMENT((#113));
#50=EDGE_CURVE('Unnamed[1]',#114,#114,#115,.T.);
#51=PRESENTATION_STYLE_ASSIGNMENT((#116));
#52=EDGE_CURVE('Unnamed[1]',#117,#117,#118,.T.);
#53=PRESENTATION_STYLE_ASSIGNMENT((#119));
#54=PRESENTATION_STYLE_ASSIGNMENT((#120));
#55=ADVANCED_FACE('Unnamed[1]',(#121,#122),#123,.F.);
#56=PRESENTATION_STYLE_ASSIGNMENT((#124));
#57=PRESENTATION_STYLE_ASSIGNMENT((#125));
#58=ADVANCED_FACE('Unnamed[1]',(#126,#127),#128,.T.);
#59=PRESENTATION_STYLE_ASSIGNMENT((#129));
#60=EDGE_CURVE('Unnamed[1]',#130,#130,#131,.T.);
#61=PRESENTATION_STYLE_ASSIGNMENT((#132));
#62=PRESENTATION_STYLE_ASSIGNMENT((#133));
#63=ADVANCED_FACE('Unnamed[1]',(#134,#135),#136,.T.);
#64=PRESENTATION_STYLE_ASSIGNMENT((#137));
#65=PRESENTATION_STYLE_ASSIGNMENT((#138));
#66=MANIFOLD_SOLID_BREP('Unnamed[1]',#139);
#67=PRESENTATION_STYLE_ASSIGNMENT((#140));
#68=PRESENTATION_STYLE_ASSIGNMENT((#141));
#69=ADVANCED_FACE('Unnamed[1]',(#142,#143),#144,.T.);
#70=PRESENTATION_STYLE_ASSIGNMENT((#145));
#71=PRESENTATION_STYLE_ASSIGNMENT((#146));
#72=ADVANCED_FACE('Unnamed[1]',(#147,#148),#149,.T.);
#73=PRESENTATION_STYLE_ASSIGNMENT((#150));
#74=EDGE_CURVE('Unnamed[1]',#151,#151,#152,.T.);
#75=PRESENTATION_STYLE_ASSIGNMENT((#153));
#76=PRESENTATION_STYLE_ASSIGNMENT((#154));
#77=ADVANCED_FACE('Unnamed[1]',(#155,#156),#157,.T.);
#78=PRESENTATION_STYLE_ASSIGNMENT((#158));
#79=EDGE_CURVE('Unnamed[1]',#159,#159,#160,.T.);
#80=PRESENTATION_STYLE_ASSIGNMENT((#161));
#81=PRESENTATION_STYLE_ASSIGNMENT((#162));
#82=ADVANCED_FACE('Unnamed[1]',(#163,#164),#165,.T.);
#83=PRODUCT('Unnamed[1]','Unnamed[1]','PART-Unnamed[1]-DESC',(#166));
#84=PRODUCT_DEFINITION('NONE','NONE',#167,#2);
#85=AXIS2_PLACEMENT_3D('',#168,#169,#170);
#88=LENGTH_MEASURE_WITH_UNIT(LENGTH_MEASURE(1.0),#171);
#91=DIMENSIONAL_EXPONENTS(1.0,0.0,0.0,0.0,0.0,0.0,0.0);
#93=DIMENSIONAL_EXPONENTS(0.0,0.0,0.0,0.0,0.0,0.0,0.0);
#99=CURVE_STYLE('',#172,POSITIVE_LENGTH_MEASURE(1000.0),#173);
#100=VERTEX_POINT('',#174);
#101=CIRCLE('',#175,10.0);
#102=SURFACE_STYLE_USAGE(.BOTH.,#176);
#103=CURVE_STYLE('',#177,POSITIVE_LENGTH_MEASURE(1000.0),#178);
#104=FACE_BOUND('',#179,.T.);
#105=FACE_BOUND('',#180,.T.);
#106=CYLINDRICAL_SURFACE('',#181,16.0);
#107=CURVE_STYLE('',#182,POSITIVE_LENGTH_MEASURE(1000.0),#183);
#108=VERTEX_POINT('',#184);
#109=CIRCLE('',#185,17.8301270189222);
#110=CURVE_STYLE('',#186,POSITIVE_LENGTH_MEASURE(1000.0),#187);
#111=VERTEX_POINT('',#188);
#112=CIRCLE('',#189,10.0);
#113=CURVE_STYLE('',#190,POSITIVE_LENGTH_MEASURE(1000.0),#191);
#114=VERTEX_POINT('',#192);
#115=CIRCLE('',#193,16.0);
#116=CURVE_STYLE('',#194,POSITIVE_LENGTH_MEASURE(1000.0),#195);
#117=VERTEX_POINT('',#196);
#118=CIRCLE('',#197,18.5);
#119=SURFACE_STYLE_USAGE(.BOTH.,#198);
#120=CURVE_STYLE('',#199,POSITIVE_LENGTH_MEASURE(1000.0),#200);
#121=FACE_BOUND('',#201,.T.);
#122=FACE_BOUND('',#202,.T.);
#123=CYLINDRICAL_SURFACE('',#203,10.0);
#124=SURFACE_STYLE_USAGE(.BOTH.,#204);
#125=CURVE_STYLE('',#205,POSITIVE_LENGTH_MEASURE(1000.0),#206);
#126=FACE_BOUND('',#207,.T.);
#127=FACE_BOUND('',#208,.T.);
#128=CONICAL_SURFACE('',#209,18.25,0.785398163397448);
#129=CURVE_STYLE('',#210,POSITIVE_LENGTH_MEASURE(1000.0),#211);
#130=VERTEX_POINT('',#212);
#131=CIRCLE('',#213,18.0);
#132=SURFACE_STYLE_USAGE(.BOTH.,#214);
#133=CURVE_STYLE('',#215,POSITIVE_LENGTH_MEASURE(1000.0),#216);
#134=FACE_BOUND('',#217,.T.);
#135=FACE_OUTER_BOUND('',#218,.T.);
#136=PLANE('',#219);
#137=SURFACE_STYLE_USAGE(.BOTH.,#220);
#138=CURVE_STYLE('',#221,POSITIVE_LENGTH_MEASURE(1000.0),#222);
#139=CLOSED_SHELL('',(#55,#82,#44,#77,#69,#72,#58,#63));
#140=SURFACE_STYLE_USAGE(.BOTH.,#223);
#141=CURVE_STYLE('',#224,POSITIVE_LENGTH_MEASURE(1000.0),#225);
#142=FACE_BOUND('',#226,.T.);
#143=FACE_BOUND('',#227,.T.);
#144=CONICAL_SURFACE('',#228,18.1650635094611,0.261799387799158);
#145=SURFACE_STYLE_USAGE(.BOTH.,#229);
#146=CURVE_STYLE('',#230,POSITIVE_LENGTH_MEASURE(1000.0),#231);
#147=FACE_BOUND('',#232,.T.);
#148=FACE_BOUND('',#233,.T.);
#149=CYLINDRICAL_SURFACE('',#234,18.5);
#150=CURVE_STYLE('',#235,POSITIVE_LENGTH_MEASURE(1000.0),#236);
#151=VERTEX_POINT('',#237);
#152=CIRCLE('',#238,18.5);
#153=SURFACE_STYLE_USAGE(.BOTH.,#239);
#154=CURVE_STYLE('',#240,POSITIVE_LENGTH_MEASURE(1000.0),#241);
#155=FACE_OUTER_BOUND('',#242,.T.);
#156=FACE_BOUND('',#243,.T.);
#157=PLANE('',#244);
#158=CURVE_STYLE('',#245,POSITIVE_LENGTH_MEASURE(1000.0),#246);
#159=VERTEX_POINT('',#247);
#160=CIRCLE('',#248,16.0);
#161=SURFACE_STYLE_USAGE(.BOTH.,#249);
#162=CURVE_STYLE('',#250,POSITIVE_LENGTH_MEASURE(1000.0),#251);
#163=FACE_BOUND('',#252,.T.);
#164=FACE_OUTER_BOUND('',#253,.T.);
#165=PLANE('',#254);
#166=PRODUCT_CONTEXT('',#27,'mechanical');
#167=PRODUCT_DEFINITION_FORMATION_WITH_SPECIFIED_SOURCE(' ','NONE',#83,.NOT_KNOWN.);
#168=CARTESIAN_POINT('',(0.0,0.0,0.0));
#169=DIRECTION('',(0.0,0.0,1.0));
#170=DIRECTION('',(1.0,0.0,0.0));
#171= (NAMED_UNIT(#91)LENGTH_UNIT()SI_UNIT(.MILLI.,.METRE.));
#172=DRAUGHTING_PRE_DEFINED_CURVE_FONT('continuous');
#173=COLOUR_RGB('',0.0,1.0,0.0);
#174=CARTESIAN_POINT('',(9.99999999999999,-9.61347737330672E-015,78.5));
#175=AXIS2_PLACEMENT_3D('',#256,#257,#258);
#176=SURFACE_SIDE_STYLE('',(#259));
#177=DRAUGHTING_PRE_DEFINED_CURVE_FONT('continuous');
#178=COLOUR_RGB('',0.0,1.0,0.0);
#179=EDGE_LOOP('',(#260));
#180=EDGE_LOOP('',(#261));
#181=AXIS2_PLACEMENT_3D('',#262,#263,#264);
#182=DRAUGHTING_PRE_DEFINED_CURVE_FONT('continuous');
#183=COLOUR_RGB('',0.0,1.0,0.0);
#184=CARTESIAN_POINT('',(-2.14313189850787E-016,17.8301270189222,3.5));
#185=AXIS2_PLACEMENT_3D('',#265,#266,#267);
#186=DRAUGHTING_PRE_DEFINED_CURVE_FONT('continuous');
#187=COLOUR_RGB('',0.0,1.0,0.0);
#188=CARTESIAN_POINT('',(9.99999999999999,-9.61347737330672E-015,0.0));
#189=AXIS2_PLACEMENT_3D('',#268,#269,#270);
#190=DRAUGHTING_PRE_DEFINED_CURVE_FONT('continuous');
#191=COLOUR_RGB('',0.0,1.0,0.0);
#192=CARTESIAN_POINT('',(-4.80673868665336E-015,16.0,78.5));
#193=AXIS2_PLACEMENT_3D('',#271,#272,#273);
#194=DRAUGHTING_PRE_DEFINED_CURVE_FONT('continuous');
#195=COLOUR_RGB('',0.0,1.0,0.0);
#196=CARTESIAN_POINT('',(-6.12323399573783E-017,18.5,1.00000000000017));
#197=AXIS2_PLACEMENT_3D('',#274,#275,#276);
#198=SURFACE_SIDE_STYLE('',(#277));
#199=DRAUGHTING_PRE_DEFINED_CURVE_FONT('continuous');
#200=COLOUR_RGB('',0.0,1.0,0.0);
#201=EDGE_LOOP('',(#278));
#202=EDGE_LOOP('',(#279));
#203=AXIS2_PLACEMENT_3D('',#280,#281,#282);
#204=SURFACE_SIDE_STYLE('',(#283));
#205=DRAUGHTING_PRE_DEFINED_CURVE_FONT('continuous');
#206=COLOUR_RGB('',0.0,1.0,0.0);
#207=EDGE_LOOP('',(#284));
#208=EDGE_LOOP('',(#285));
#209=AXIS2_PLACEMENT_3D('',#286,#287,#288);
#210=DRAUGHTING_PRE_DEFINED_CURVE_FONT('continuous');
#211=COLOUR_RGB('',0.0,1.0,0.0);
#212=CARTESIAN_POINT('',(-2.2186712959341E-031,18.0,2.22044604925031E-015));
#213=AXIS2_PLACEMENT_3D('',#289,#290,#291);
#214=SURFACE_SIDE_STYLE('',(#292));
#215=DRAUGHTING_PRE_DEFINED_CURVE_FONT('continuous');
#216=COLOUR_RGB('',0.0,1.0,0.0);
#217=EDGE_LOOP('',(#293));
#218=EDGE_LOOP('',(#294));
#219=AXIS2_PLACEMENT_3D('',#295,#296,#297);
#220=SURFACE_SIDE_STYLE('',(#298));
#221=DRAUGHTING_PRE_DEFINED_CURVE_FONT('continuous');
#222=COLOUR_RGB('',0.0,1.0,0.0);
#223=SURFACE_SIDE_STYLE('',(#299));
#224=DRAUGHTING_PRE_DEFINED_CURVE_FONT('continuous');
#225=COLOUR_RGB('',0.0,1.0,0.0);
#226=EDGE_LOOP('',(#300));
#227=EDGE_LOOP('',(#301));
#228=AXIS2_PLACEMENT_3D('',#302,#303,#304);
#229=SURFACE_SIDE_STYLE('',(#305));
#230=DRAUGHTING_PRE_DEFINED_CURVE_FONT('continuous');
#231=COLOUR_RGB('',0.0,1.0,0.0);
#232=EDGE_LOOP('',(#306));
#233=EDGE_LOOP('',(#307));
#234=AXIS2_PLACEMENT_3D('',#308,#309,#310);
#235=DRAUGHTING_PRE_DEFINED_CURVE_FONT('continuous');
#236=COLOUR_RGB('',0.0,1.0,0.0);
#237=CARTESIAN_POINT('',(-3.06161699786841E-017,18.5,0.500000000000002));
#238=AXIS2_PLACEMENT_3D('',#311,#312,#313);
#239=SURFACE_SIDE_STYLE('',(#314));
#240=DRAUGHTING_PRE_DEFINED_CURVE_FONT('continuous');
#241=COLOUR_RGB('',0.0,1.0,0.0);
#242=EDGE_LOOP('',(#315));
#243=EDGE_LOOP('',(#316));
#244=AXIS2_PLACEMENT_3D('',#317,#318,#319);
#245=DRAUGHTING_PRE_DEFINED_CURVE_FONT('continuous');
#246=COLOUR_RGB('',0.0,1.0,0.0);
#247=CARTESIAN_POINT('',(-2.14313189850787E-016,16.0,3.5));
#248=AXIS2_PLACEMENT_3D('',#320,#321,#322);
#249=SURFACE_SIDE_STYLE('',(#323));
#250=DRAUGHTING_PRE_DEFINED_CURVE_FONT('continuous');
#251=COLOUR_RGB('',0.0,1.0,0.0);
#252=EDGE_LOOP('',(#324));
#253=EDGE_LOOP('',(#325));
#254=AXIS2_PLACEMENT_3D('',#326,#327,#328);
#256=CARTESIAN_POINT('',(-4.80673868665336E-015,-9.61347737330672E-015,78.5));
#257=DIRECTION('',(-7.49879891330927E-033,1.22464679914735E-016,-1.0));
#258=DIRECTION('',(1.0,9.18338008663383E-049,-7.49879891330927E-033));
#259=SURFACE_STYLE_FILL_AREA(#329);
#260=ORIENTED_EDGE('',*,*,#79,.F.);
#261=ORIENTED_EDGE('',*,*,#50,.T.);
#262=CARTESIAN_POINT('',(-2.51052593825207E-015,-5.02105187650415E-015,41.0));
#263=DIRECTION('',(-6.12323399573676E-017,-1.22464679914735E-016,1.0));
#264=DIRECTION('',(-1.23259516440783E-032,1.0,1.22464679914735E-016));
#265=CARTESIAN_POINT('',(-2.14313189850787E-016,-4.28626379701574E-016,3.5));
#266=DIRECTION('',(6.12323399573676E-017,1.22464679914735E-016,-1.0));
#267=DIRECTION('',(-1.23259516440783E-032,1.0,1.22464679914735E-016));
#268=CARTESIAN_POINT('',(-4.80673868665336E-015,-9.61347737330672E-015,0.0));
#269=DIRECTION('',(-6.12323399573677E-017,-1.22464679914735E-016,1.0));
#270=DIRECTION('',(1.0,-7.49879891330927E-033,6.12323399573677E-017));
#271=CARTESIAN_POINT('',(-4.80673868665336E-015,-9.61347737330672E-015,78.5));
#272=DIRECTION('',(6.12323399573676E-017,1.22464679914735E-016,-1.0));
#273=DIRECTION('',(-1.23259516440783E-032,1.0,1.22464679914735E-016));
#274=CARTESIAN_POINT('',(-6.12323399573781E-017,-1.22464679914756E-016,1.00000000000017));
#275=DIRECTION('',(6.12323399573677E-017,1.22464679914735E-016,-1.0));
#276=DIRECTION('',(-1.23259516440783E-032,1.0,1.22464679914735E-016));
#277=SURFACE_STYLE_FILL_AREA(#330);
#278=ORIENTED_EDGE('',*,*,#48,.F.);
#279=ORIENTED_EDGE('',*,*,#41,.F.);
#280=CARTESIAN_POINT('',(-4.80673868665336E-015,-9.61347737330672E-015,78.5));
#281=DIRECTION('',(0.0,0.0,-1.0));
#282=DIRECTION('',(1.0,0.0,0.0));
#283=SURFACE_STYLE_FILL_AREA(#331);
#284=ORIENTED_EDGE('',*,*,#60,.F.);
#285=ORIENTED_EDGE('',*,*,#74,.T.);
#286=CARTESIAN_POINT('',(-1.53080849893419E-017,-3.06161699786838E-017,0.25));
#287=DIRECTION('',(-6.12323399573677E-017,-1.22464679914735E-016,1.0));
#288=DIRECTION('',(-1.23259516440783E-032,1.0,1.22464679914735E-016));
#289=CARTESIAN_POINT('',(0.0,0.0,0.0));
#290=DIRECTION('',(6.12323399573677E-017,1.22464679914735E-016,-1.0));
#291=DIRECTION('',(-1.23259516440783E-032,1.0,1.22464679914735E-016));
#292=SURFACE_STYLE_FILL_AREA(#332);
#293=ORIENTED_EDGE('',*,*,#48,.T.);
#294=ORIENTED_EDGE('',*,*,#60,.T.);
#295=CARTESIAN_POINT('',(-1.23259516440783E-031,9.00000000000001,8.88178419700125E-016));
#296=DIRECTION('',(6.12323399573677E-017,1.22464679914735E-016,-1.0));
#297=DIRECTION('',(-1.0,0.0,-6.12323399573677E-017));
#298=SURFACE_STYLE_FILL_AREA(#333);
#299=SURFACE_STYLE_FILL_AREA(#334);
#300=ORIENTED_EDGE('',*,*,#52,.F.);
#301=ORIENTED_EDGE('',*,*,#46,.T.);
#302=CARTESIAN_POINT('',(-1.37772764904082E-016,-2.75545529808165E-016,2.25000000000009));
#303=DIRECTION('',(6.12323399573677E-017,1.22464679914735E-016,-1.0));
#304=DIRECTION('',(-1.23259516440783E-032,1.0,1.22464679914735E-016));
#305=SURFACE_STYLE_FILL_AREA(#335);
#306=ORIENTED_EDGE('',*,*,#74,.F.);
#307=ORIENTED_EDGE('',*,*,#52,.T.);
#308=CARTESIAN_POINT('',(-4.5924254968031E-017,-9.18485099360619E-017,0.750000000000085));
#309=DIRECTION('',(-6.12323399573677E-017,-1.22464679914735E-016,1.0));
#310=DIRECTION('',(-1.23259516440783E-032,1.0,1.22464679914735E-016));
#311=CARTESIAN_POINT('',(-3.06161699786838E-017,-6.12323399573676E-017,0.5));
#312=DIRECTION('',(6.12323399573677E-017,1.22464679914735E-016,-1.0));
#313=DIRECTION('',(-1.23259516440783E-032,1.0,1.22464679914735E-016));
#314=SURFACE_STYLE_FILL_AREA(#336);
#315=ORIENTED_EDGE('',*,*,#46,.F.);
#316=ORIENTED_EDGE('',*,*,#79,.T.);
#317=CARTESIAN_POINT('',(-2.14313189850787E-016,16.9150635094611,3.5));
#318=DIRECTION('',(7.49879891330927E-033,-1.22464679914735E-016,1.0));
#319=DIRECTION('',(1.0,6.12323399573677E-017,0.0));
#320=CARTESIAN_POINT('',(-2.14313189850787E-016,-4.28626379701574E-016,3.5));
#321=DIRECTION('',(6.12323399573676E-017,1.22464679914735E-016,-1.0));
#322=DIRECTION('',(-1.23259516440783E-032,1.0,1.22464679914735E-016));
#323=SURFACE_STYLE_FILL_AREA(#337);
#324=ORIENTED_EDGE('',*,*,#41,.T.);
#325=ORIENTED_EDGE('',*,*,#50,.F.);
#326=CARTESIAN_POINT('',(-4.80673868665336E-015,8.0,78.5));
#327=DIRECTION('',(7.49879891330927E-033,-1.22464679914735E-016,1.0));
#328=DIRECTION('',(1.0,6.12323399573677E-017,0.0));
#329=FILL_AREA_STYLE('',(#338));
#330=FILL_AREA_STYLE('',(#339));
#331=FILL_AREA_STYLE('',(#340));
#332=FILL_AREA_STYLE('',(#341));
#333=FILL_AREA_STYLE('',(#342));
#334=FILL_AREA_STYLE('',(#343));
#335=FILL_AREA_STYLE('',(#344));
#336=FILL_AREA_STYLE('',(#345));
#337=FILL_AREA_STYLE('',(#346));
#338=FILL_AREA_STYLE_COLOUR('',#347);
#339=FILL_AREA_STYLE_COLOUR('',#348);
#340=FILL_AREA_STYLE_COLOUR('',#349);
#341=FILL_AREA_STYLE_COLOUR('',#350);
#342=FILL_AREA_STYLE_COLOUR('',#351);
#343=FILL_AREA_STYLE_COLOUR('',#352);
#344=FILL_AREA_STYLE_COLOUR('',#353);
#345=FILL_AREA_STYLE_COLOUR('',#354);
#346=FILL_AREA_STYLE_COLOUR('',#355);
#347=COLOUR_RGB('',0.0,1.0,0.0);
#348=COLOUR_RGB('',0.0,1.0,0.0);
#349=COLOUR_RGB('',0.0,1.0,0.0);
#350=COLOUR_RGB('',0.0,1.0,0.0);
#351=COLOUR_RGB('',0.0,1.0,0.0);
#352=COLOUR_RGB('',0.0,1.0,0.0);
#353=COLOUR_RGB('',0.0,1.0,0.0);
#354=COLOUR_RGB('',0.0,1.0,0.0);
#355=COLOUR_RGB('',0.0,1.0,0.0);
ENDSEC;
END-ISO-10303-21;
