ISO-10303-21;
HEADER;
FILE_DESCRIPTION((''),'1');
FILE_NAME('T:/02_3D_Field-HP\X2\FF71FF6FFF8CFF9F5916\X0\/02_Step_Field-HP\X2\FF71FF6FFF8CFF9F5916\X0\/66_\X2\FF71FF78FF7EFF7BFF98FF70\X0\/OCA32_19.stp','2021-03-02T02:36:13',(''),(''),'Spatial Interop R21 SP3','Kubotek KeyCreator 2011 V10.0.2 (22737)',' ');
FILE_SCHEMA(('automotive_design'));
ENDSEC;
DATA;
#1=MECHANICAL_DESIGN_GEOMETRIC_PRESENTATION_REPRESENTATION(' ',(#10,#11,#12,#13,#14,#15,#16,#17,#18,#19,#20,#21,#22,#23,#24,#25,#26),#6);
#2=PRODUCT_DEFINITION_CONTEXT('',#27,'design');
#3=APPLICATION_PROTOCOL_DEFINITION('INTERNATIONAL STANDARD','automotive_design',1994,#27);
#4=PRODUCT_CATEGORY_RELATIONSHIP('NONE','NONE',#28,#29);
#5=SHAPE_DEFINITION_REPRESENTATION(#30,#31);
#6= (GEOMETRIC_REPRESENTATION_CONTEXT(3)GLOBAL_UNCERTAINTY_ASSIGNED_CONTEXT((#34))GLOBAL_UNIT_ASSIGNED_CONTEXT((#36,#37,#38))REPRESENTATION_CONTEXT('NONE','WORKSPACE'));
#10=STYLED_ITEM('',(#40,#41),#42);
#11=STYLED_ITEM('',(#43),#44);
#12=STYLED_ITEM('',(#45),#46);
#13=STYLED_ITEM('',(#47,#48),#49);
#14=STYLED_ITEM('',(#50),#51);
#15=STYLED_ITEM('',(#52),#53);
#16=STYLED_ITEM('',(#54),#55);
#17=STYLED_ITEM('',(#56,#57),#58);
#18=STYLED_ITEM('',(#59,#60),#61);
#19=STYLED_ITEM('',(#62,#63),#64);
#20=STYLED_ITEM('',(#65,#66),#67);
#21=STYLED_ITEM('',(#68,#69),#70);
#22=STYLED_ITEM('',(#71,#72),#73);
#23=STYLED_ITEM('',(#74,#75),#76);
#24=STYLED_ITEM('',(#77),#78);
#25=STYLED_ITEM('',(#79),#80);
#26=STYLED_ITEM('',(#81),#82);
#27=APPLICATION_CONTEXT(' ');
#28=PRODUCT_CATEGORY('part','NONE');
#29=PRODUCT_RELATED_PRODUCT_CATEGORY('detail',' ',(#83));
#30=PRODUCT_DEFINITION_SHAPE('NONE','NONE',#84);
#31=ADVANCED_BREP_SHAPE_REPRESENTATION('Unnamed[1]',(#70,#85),#6);
#34=UNCERTAINTY_MEASURE_WITH_UNIT(LENGTH_MEASURE(1.0E-006),#36,'','');
#36= (CONVERSION_BASED_UNIT('INCH',#88)LENGTH_UNIT()NAMED_UNIT(#91));
#37= (NAMED_UNIT(#93)PLANE_ANGLE_UNIT()SI_UNIT($,.RADIAN.));
#38= (NAMED_UNIT(#93)SOLID_ANGLE_UNIT()SI_UNIT($,.STERADIAN.));
#40=PRESENTATION_STYLE_ASSIGNMENT((#99));
#41=PRESENTATION_STYLE_ASSIGNMENT((#100));
#42=ADVANCED_FACE('Unnamed[1]',(#101,#102),#103,.T.);
#43=PRESENTATION_STYLE_ASSIGNMENT((#104));
#44=EDGE_CURVE('Unnamed[1]',#105,#105,#106,.T.);
#45=PRESENTATION_STYLE_ASSIGNMENT((#107));
#46=EDGE_CURVE('Unnamed[1]',#108,#108,#109,.T.);
#47=PRESENTATION_STYLE_ASSIGNMENT((#110));
#48=PRESENTATION_STYLE_ASSIGNMENT((#111));
#49=ADVANCED_FACE('Unnamed[1]',(#112,#113),#114,.T.);
#50=PRESENTATION_STYLE_ASSIGNMENT((#115));
#51=EDGE_CURVE('Unnamed[1]',#116,#116,#117,.T.);
#52=PRESENTATION_STYLE_ASSIGNMENT((#118));
#53=EDGE_CURVE('Unnamed[1]',#119,#119,#120,.T.);
#54=PRESENTATION_STYLE_ASSIGNMENT((#121));
#55=EDGE_CURVE('Unnamed[1]',#122,#122,#123,.T.);
#56=PRESENTATION_STYLE_ASSIGNMENT((#124));
#57=PRESENTATION_STYLE_ASSIGNMENT((#125));
#58=ADVANCED_FACE('Unnamed[1]',(#126,#127),#128,.T.);
#59=PRESENTATION_STYLE_ASSIGNMENT((#129));
#60=PRESENTATION_STYLE_ASSIGNMENT((#130));
#61=ADVANCED_FACE('Unnamed[1]',(#131,#132),#133,.T.);
#62=PRESENTATION_STYLE_ASSIGNMENT((#134));
#63=PRESENTATION_STYLE_ASSIGNMENT((#135));
#64=ADVANCED_FACE('Unnamed[1]',(#136,#137),#138,.T.);
#65=PRESENTATION_STYLE_ASSIGNMENT((#139));
#66=PRESENTATION_STYLE_ASSIGNMENT((#140));
#67=ADVANCED_FACE('Unnamed[1]',(#141,#142),#143,.F.);
#68=PRESENTATION_STYLE_ASSIGNMENT((#144));
#69=PRESENTATION_STYLE_ASSIGNMENT((#145));
#70=MANIFOLD_SOLID_BREP('Unnamed[1]',#146);
#71=PRESENTATION_STYLE_ASSIGNMENT((#147));
#72=PRESENTATION_STYLE_ASSIGNMENT((#148));
#73=ADVANCED_FACE('Unnamed[1]',(#149,#150),#151,.T.);
#74=PRESENTATION_STYLE_ASSIGNMENT((#152));
#75=PRESENTATION_STYLE_ASSIGNMENT((#153));
#76=ADVANCED_FACE('Unnamed[1]',(#154,#155),#156,.T.);
#77=PRESENTATION_STYLE_ASSIGNMENT((#157));
#78=EDGE_CURVE('Unnamed[1]',#158,#158,#159,.T.);
#79=PRESENTATION_STYLE_ASSIGNMENT((#160));
#80=EDGE_CURVE('Unnamed[1]',#161,#161,#162,.T.);
#81=PRESENTATION_STYLE_ASSIGNMENT((#163));
#82=EDGE_CURVE('Unnamed[1]',#164,#164,#165,.T.);
#83=PRODUCT('Unnamed[1]','Unnamed[1]','PART-Unnamed[1]-DESC',(#166));
#84=PRODUCT_DEFINITION('NONE','NONE',#167,#2);
#85=AXIS2_PLACEMENT_3D('',#168,#169,#170);
#88=LENGTH_MEASURE_WITH_UNIT(LENGTH_MEASURE(25.4),#171);
#91=DIMENSIONAL_EXPONENTS(1.0,0.0,0.0,0.0,0.0,0.0,0.0);
#93=DIMENSIONAL_EXPONENTS(0.0,0.0,0.0,0.0,0.0,0.0,0.0);
#99=SURFACE_STYLE_USAGE(.BOTH.,#172);
#100=CURVE_STYLE('',#173,POSITIVE_LENGTH_MEASURE(1000.0),#174);
#101=FACE_BOUND('',#175,.T.);
#102=FACE_BOUND('',#176,.T.);
#103=CYLINDRICAL_SURFACE('',#177,18.5);
#104=CURVE_STYLE('',#178,POSITIVE_LENGTH_MEASURE(1000.0),#179);
#105=VERTEX_POINT('',#180);
#106=CIRCLE('',#181,9.5);
#107=CURVE_STYLE('',#182,POSITIVE_LENGTH_MEASURE(1000.0),#183);
#108=VERTEX_POINT('',#184);
#109=CIRCLE('',#185,18.0);
#110=SURFACE_STYLE_USAGE(.BOTH.,#186);
#111=CURVE_STYLE('',#187,POSITIVE_LENGTH_MEASURE(1000.0),#188);
#112=FACE_BOUND('',#189,.T.);
#113=FACE_BOUND('',#190,.T.);
#114=CYLINDRICAL_SURFACE('',#191,16.0);
#115=CURVE_STYLE('',#192,POSITIVE_LENGTH_MEASURE(1000.0),#193);
#116=VERTEX_POINT('',#194);
#117=CIRCLE('',#195,17.8301270189222);
#118=CURVE_STYLE('',#196,POSITIVE_LENGTH_MEASURE(1000.0),#197);
#119=VERTEX_POINT('',#198);
#120=CIRCLE('',#199,9.5);
#121=CURVE_STYLE('',#200,POSITIVE_LENGTH_MEASURE(1000.0),#201);
#122=VERTEX_POINT('',#202);
#123=CIRCLE('',#203,16.0);
#124=SURFACE_STYLE_USAGE(.BOTH.,#204);
#125=CURVE_STYLE('',#205,POSITIVE_LENGTH_MEASURE(1000.0),#206);
#126=FACE_BOUND('',#207,.T.);
#127=FACE_OUTER_BOUND('',#208,.T.);
#128=PLANE('',#209);
#129=SURFACE_STYLE_USAGE(.BOTH.,#210);
#130=CURVE_STYLE('',#211,POSITIVE_LENGTH_MEASURE(1000.0),#212);
#131=FACE_OUTER_BOUND('',#213,.T.);
#132=FACE_BOUND('',#214,.T.);
#133=PLANE('',#215);
#134=SURFACE_STYLE_USAGE(.BOTH.,#216);
#135=CURVE_STYLE('',#217,POSITIVE_LENGTH_MEASURE(1000.0),#218);
#136=FACE_OUTER_BOUND('',#219,.T.);
#137=FACE_BOUND('',#220,.T.);
#138=PLANE('',#221);
#139=SURFACE_STYLE_USAGE(.BOTH.,#222);
#140=CURVE_STYLE('',#223,POSITIVE_LENGTH_MEASURE(1000.0),#224);
#141=FACE_BOUND('',#225,.T.);
#142=FACE_BOUND('',#226,.T.);
#143=CYLINDRICAL_SURFACE('',#227,9.5);
#144=SURFACE_STYLE_USAGE(.BOTH.,#228);
#145=CURVE_STYLE('',#229,POSITIVE_LENGTH_MEASURE(1000.0),#230);
#146=CLOSED_SHELL('',(#61,#49,#64,#73,#42,#76,#58,#67));
#147=SURFACE_STYLE_USAGE(.BOTH.,#231);
#148=CURVE_STYLE('',#232,POSITIVE_LENGTH_MEASURE(1000.0),#233);
#149=FACE_BOUND('',#234,.T.);
#150=FACE_BOUND('',#235,.T.);
#151=CONICAL_SURFACE('',#236,18.1650635094611,0.261799387799155);
#152=SURFACE_STYLE_USAGE(.BOTH.,#237);
#153=CURVE_STYLE('',#238,POSITIVE_LENGTH_MEASURE(1000.0),#239);
#154=FACE_BOUND('',#240,.T.);
#155=FACE_BOUND('',#241,.T.);
#156=CONICAL_SURFACE('',#242,18.25,0.785398163397445);
#157=CURVE_STYLE('',#243,POSITIVE_LENGTH_MEASURE(1000.0),#244);
#158=VERTEX_POINT('',#245);
#159=CIRCLE('',#246,16.0);
#160=CURVE_STYLE('',#247,POSITIVE_LENGTH_MEASURE(1000.0),#248);
#161=VERTEX_POINT('',#249);
#162=CIRCLE('',#250,18.5);
#163=CURVE_STYLE('',#251,POSITIVE_LENGTH_MEASURE(1000.0),#252);
#164=VERTEX_POINT('',#253);
#165=CIRCLE('',#254,18.5);
#166=PRODUCT_CONTEXT('',#27,'mechanical');
#167=PRODUCT_DEFINITION_FORMATION_WITH_SPECIFIED_SOURCE(' ','NONE',#83,.NOT_KNOWN.);
#168=CARTESIAN_POINT('',(0.0,0.0,0.0));
#169=DIRECTION('',(0.0,0.0,1.0));
#170=DIRECTION('',(1.0,0.0,0.0));
#171= (NAMED_UNIT(#91)LENGTH_UNIT()SI_UNIT(.MILLI.,.METRE.));
#172=SURFACE_SIDE_STYLE('',(#256));
#173=DRAUGHTING_PRE_DEFINED_CURVE_FONT('continuous');
#174=COLOUR_RGB('',0.0,1.0,0.0);
#175=EDGE_LOOP('',(#257));
#176=EDGE_LOOP('',(#258));
#177=AXIS2_PLACEMENT_3D('',#259,#260,#261);
#178=DRAUGHTING_PRE_DEFINED_CURVE_FONT('continuous');
#179=COLOUR_RGB('',0.0,1.0,0.0);
#180=CARTESIAN_POINT('',(-4.80673868665336E-015,9.49999999999999,78.5));
#181=AXIS2_PLACEMENT_3D('',#262,#263,#264);
#182=DRAUGHTING_PRE_DEFINED_CURVE_FONT('continuous');
#183=COLOUR_RGB('',0.0,1.0,0.0);
#184=CARTESIAN_POINT('',(-2.2186712959341E-031,18.0,2.22044604925031E-015));
#185=AXIS2_PLACEMENT_3D('',#265,#266,#267);
#186=SURFACE_SIDE_STYLE('',(#268));
#187=DRAUGHTING_PRE_DEFINED_CURVE_FONT('continuous');
#188=COLOUR_RGB('',0.0,1.0,0.0);
#189=EDGE_LOOP('',(#269));
#190=EDGE_LOOP('',(#270));
#191=AXIS2_PLACEMENT_3D('',#271,#272,#273);
#192=DRAUGHTING_PRE_DEFINED_CURVE_FONT('continuous');
#193=COLOUR_RGB('',0.0,1.0,0.0);
#194=CARTESIAN_POINT('',(-2.14313189850787E-016,17.8301270189222,3.5));
#195=AXIS2_PLACEMENT_3D('',#274,#275,#276);
#196=DRAUGHTING_PRE_DEFINED_CURVE_FONT('continuous');
#197=COLOUR_RGB('',0.0,1.0,0.0);
#198=CARTESIAN_POINT('',(-1.23259516440783E-031,9.5,1.33226762955019E-015));
#199=AXIS2_PLACEMENT_3D('',#277,#278,#279);
#200=DRAUGHTING_PRE_DEFINED_CURVE_FONT('continuous');
#201=COLOUR_RGB('',0.0,1.0,0.0);
#202=CARTESIAN_POINT('',(-2.14313189850787E-016,16.0,3.5));
#203=AXIS2_PLACEMENT_3D('',#280,#281,#282);
#204=SURFACE_SIDE_STYLE('',(#283));
#205=DRAUGHTING_PRE_DEFINED_CURVE_FONT('continuous');
#206=COLOUR_RGB('',0.0,1.0,0.0);
#207=EDGE_LOOP('',(#284));
#208=EDGE_LOOP('',(#285));
#209=AXIS2_PLACEMENT_3D('',#286,#287,#288);
#210=SURFACE_SIDE_STYLE('',(#289));
#211=DRAUGHTING_PRE_DEFINED_CURVE_FONT('continuous');
#212=COLOUR_RGB('',0.0,1.0,0.0);
#213=EDGE_LOOP('',(#290));
#214=EDGE_LOOP('',(#291));
#215=AXIS2_PLACEMENT_3D('',#292,#293,#294);
#216=SURFACE_SIDE_STYLE('',(#295));
#217=DRAUGHTING_PRE_DEFINED_CURVE_FONT('continuous');
#218=COLOUR_RGB('',0.0,1.0,0.0);
#219=EDGE_LOOP('',(#296));
#220=EDGE_LOOP('',(#297));
#221=AXIS2_PLACEMENT_3D('',#298,#299,#300);
#222=SURFACE_SIDE_STYLE('',(#301));
#223=DRAUGHTING_PRE_DEFINED_CURVE_FONT('continuous');
#224=COLOUR_RGB('',0.0,1.0,0.0);
#225=EDGE_LOOP('',(#302));
#226=EDGE_LOOP('',(#303));
#227=AXIS2_PLACEMENT_3D('',#304,#305,#306);
#228=SURFACE_SIDE_STYLE('',(#307));
#229=DRAUGHTING_PRE_DEFINED_CURVE_FONT('continuous');
#230=COLOUR_RGB('',0.0,1.0,0.0);
#231=SURFACE_SIDE_STYLE('',(#308));
#232=DRAUGHTING_PRE_DEFINED_CURVE_FONT('continuous');
#233=COLOUR_RGB('',0.0,1.0,0.0);
#234=EDGE_LOOP('',(#309));
#235=EDGE_LOOP('',(#310));
#236=AXIS2_PLACEMENT_3D('',#311,#312,#313);
#237=SURFACE_SIDE_STYLE('',(#314));
#238=DRAUGHTING_PRE_DEFINED_CURVE_FONT('continuous');
#239=COLOUR_RGB('',0.0,1.0,0.0);
#240=EDGE_LOOP('',(#315));
#241=EDGE_LOOP('',(#316));
#242=AXIS2_PLACEMENT_3D('',#317,#318,#319);
#243=DRAUGHTING_PRE_DEFINED_CURVE_FONT('continuous');
#244=COLOUR_RGB('',0.0,1.0,0.0);
#245=CARTESIAN_POINT('',(-4.80673868665336E-015,16.0,78.5));
#246=AXIS2_PLACEMENT_3D('',#320,#321,#322);
#247=DRAUGHTING_PRE_DEFINED_CURVE_FONT('continuous');
#248=COLOUR_RGB('',0.0,1.0,0.0);
#249=CARTESIAN_POINT('',(-6.12323399573783E-017,18.5,1.00000000000017));
#250=AXIS2_PLACEMENT_3D('',#323,#324,#325);
#251=DRAUGHTING_PRE_DEFINED_CURVE_FONT('continuous');
#252=COLOUR_RGB('',0.0,1.0,0.0);
#253=CARTESIAN_POINT('',(-3.06161699786841E-017,18.5,0.500000000000002));
#254=AXIS2_PLACEMENT_3D('',#326,#327,#328);
#256=SURFACE_STYLE_FILL_AREA(#329);
#257=ORIENTED_EDGE('',*,*,#82,.F.);
#258=ORIENTED_EDGE('',*,*,#80,.T.);
#259=CARTESIAN_POINT('',(-4.5924254968031E-017,-9.18485099360619E-017,0.750000000000085));
#260=DIRECTION('',(6.12323399573676E-017,1.22464679914735E-016,-1.0));
#261=DIRECTION('',(-1.23259516440783E-032,1.0,1.22464679914735E-016));
#262=CARTESIAN_POINT('',(-4.80673868665336E-015,-9.61347737330672E-015,78.5));
#263=DIRECTION('',(6.12323399573677E-017,1.22464679914735E-016,-1.0));
#264=DIRECTION('',(-1.23259516440783E-032,1.0,1.22464679914735E-016));
#265=CARTESIAN_POINT('',(0.0,0.0,0.0));
#266=DIRECTION('',(6.12323399573677E-017,1.22464679914735E-016,-1.0));
#267=DIRECTION('',(-1.23259516440783E-032,1.0,1.22464679914735E-016));
#268=SURFACE_STYLE_FILL_AREA(#330);
#269=ORIENTED_EDGE('',*,*,#55,.F.);
#270=ORIENTED_EDGE('',*,*,#78,.T.);
#271=CARTESIAN_POINT('',(-2.51052593825207E-015,-5.02105187650415E-015,41.0));
#272=DIRECTION('',(6.12323399573676E-017,1.22464679914735E-016,-1.0));
#273=DIRECTION('',(-1.23259516440783E-032,1.0,1.22464679914735E-016));
#274=CARTESIAN_POINT('',(-2.14313189850787E-016,-4.28626379701574E-016,3.5));
#275=DIRECTION('',(6.12323399573676E-017,1.22464679914735E-016,-1.0));
#276=DIRECTION('',(-1.23259516440783E-032,1.0,1.22464679914735E-016));
#277=CARTESIAN_POINT('',(0.0,0.0,0.0));
#278=DIRECTION('',(6.12323399573677E-017,1.22464679914735E-016,-1.0));
#279=DIRECTION('',(-1.23259516440783E-032,1.0,1.22464679914735E-016));
#280=CARTESIAN_POINT('',(-2.14313189850787E-016,-4.28626379701574E-016,3.5));
#281=DIRECTION('',(6.12323399573676E-017,1.22464679914735E-016,-1.0));
#282=DIRECTION('',(-1.23259516440783E-032,1.0,1.22464679914735E-016));
#283=SURFACE_STYLE_FILL_AREA(#331);
#284=ORIENTED_EDGE('',*,*,#53,.F.);
#285=ORIENTED_EDGE('',*,*,#46,.T.);
#286=CARTESIAN_POINT('',(-1.72563323017096E-031,13.75,1.77635683940025E-015));
#287=DIRECTION('',(6.12323399573677E-017,1.22464679914735E-016,-1.0));
#288=DIRECTION('',(-1.23259516440783E-032,1.0,1.22464679914735E-016));
#289=SURFACE_STYLE_FILL_AREA(#332);
#290=ORIENTED_EDGE('',*,*,#78,.F.);
#291=ORIENTED_EDGE('',*,*,#44,.T.);
#292=CARTESIAN_POINT('',(-4.80673868665336E-015,12.75,78.5));
#293=DIRECTION('',(-6.12323399573677E-017,-1.22464679914735E-016,1.0));
#294=DIRECTION('',(1.23259516440783E-032,-1.0,-1.22464679914735E-016));
#295=SURFACE_STYLE_FILL_AREA(#333);
#296=ORIENTED_EDGE('',*,*,#51,.F.);
#297=ORIENTED_EDGE('',*,*,#55,.T.);
#298=CARTESIAN_POINT('',(-2.14313189850787E-016,16.9150635094611,3.5));
#299=DIRECTION('',(-6.12323399573677E-017,-1.22464679914735E-016,1.0));
#300=DIRECTION('',(1.23259516440783E-032,-1.0,-1.22464679914735E-016));
#301=SURFACE_STYLE_FILL_AREA(#334);
#302=ORIENTED_EDGE('',*,*,#44,.F.);
#303=ORIENTED_EDGE('',*,*,#53,.T.);
#304=CARTESIAN_POINT('',(-2.40336934332668E-015,-4.80673868665336E-015,39.25));
#305=DIRECTION('',(6.12323399573677E-017,1.22464679914735E-016,-1.0));
#306=DIRECTION('',(-1.23259516440783E-032,1.0,1.22464679914735E-016));
#307=SURFACE_STYLE_FILL_AREA(#335);
#308=SURFACE_STYLE_FILL_AREA(#336);
#309=ORIENTED_EDGE('',*,*,#80,.F.);
#310=ORIENTED_EDGE('',*,*,#51,.T.);
#311=CARTESIAN_POINT('',(-1.37772764904082E-016,-2.75545529808165E-016,2.25000000000009));
#312=DIRECTION('',(6.12323399573677E-017,1.22464679914735E-016,-1.0));
#313=DIRECTION('',(-1.23259516440783E-032,1.0,1.22464679914735E-016));
#314=SURFACE_STYLE_FILL_AREA(#337);
#315=ORIENTED_EDGE('',*,*,#46,.F.);
#316=ORIENTED_EDGE('',*,*,#82,.T.);
#317=CARTESIAN_POINT('',(-1.53080849893419E-017,-3.06161699786838E-017,0.25));
#318=DIRECTION('',(-6.12323399573677E-017,-1.22464679914735E-016,1.0));
#319=DIRECTION('',(-1.23259516440783E-032,1.0,1.22464679914735E-016));
#320=CARTESIAN_POINT('',(-4.80673868665336E-015,-9.61347737330672E-015,78.5));
#321=DIRECTION('',(6.12323399573676E-017,1.22464679914735E-016,-1.0));
#322=DIRECTION('',(-1.23259516440783E-032,1.0,1.22464679914735E-016));
#323=CARTESIAN_POINT('',(-6.12323399573781E-017,-1.22464679914756E-016,1.00000000000017));
#324=DIRECTION('',(6.12323399573676E-017,1.22464679914735E-016,-1.0));
#325=DIRECTION('',(-1.23259516440783E-032,1.0,1.22464679914735E-016));
#326=CARTESIAN_POINT('',(-3.06161699786838E-017,-6.12323399573676E-017,0.5));
#327=DIRECTION('',(6.12323399573676E-017,1.22464679914735E-016,-1.0));
#328=DIRECTION('',(-1.23259516440783E-032,1.0,1.22464679914735E-016));
#329=FILL_AREA_STYLE('',(#338));
#330=FILL_AREA_STYLE('',(#339));
#331=FILL_AREA_STYLE('',(#340));
#332=FILL_AREA_STYLE('',(#341));
#333=FILL_AREA_STYLE('',(#342));
#334=FILL_AREA_STYLE('',(#343));
#335=FILL_AREA_STYLE('',(#344));
#336=FILL_AREA_STYLE('',(#345));
#337=FILL_AREA_STYLE('',(#346));
#338=FILL_AREA_STYLE_COLOUR('',#347);
#339=FILL_AREA_STYLE_COLOUR('',#348);
#340=FILL_AREA_STYLE_COLOUR('',#349);
#341=FILL_AREA_STYLE_COLOUR('',#350);
#342=FILL_AREA_STYLE_COLOUR('',#351);
#343=FILL_AREA_STYLE_COLOUR('',#352);
#344=FILL_AREA_STYLE_COLOUR('',#353);
#345=FILL_AREA_STYLE_COLOUR('',#354);
#346=FILL_AREA_STYLE_COLOUR('',#355);
#347=COLOUR_RGB('',0.0,1.0,0.0);
#348=COLOUR_RGB('',0.0,1.0,0.0);
#349=COLOUR_RGB('',0.0,1.0,0.0);
#350=COLOUR_RGB('',0.0,1.0,0.0);
#351=COLOUR_RGB('',0.0,1.0,0.0);
#352=COLOUR_RGB('',0.0,1.0,0.0);
#353=COLOUR_RGB('',0.0,1.0,0.0);
#354=COLOUR_RGB('',0.0,1.0,0.0);
#355=COLOUR_RGB('',0.0,1.0,0.0);
ENDSEC;
END-ISO-10303-21;
