ISO-10303-21;
HEADER;
FILE_DESCRIPTION((''),'1');
FILE_NAME('T:/02_3D_Field-HP\X2\FF71FF6FFF8CFF9F5916\X0\/02_Step_Field-HP\X2\FF71FF6FFF8CFF9F5916\X0\/66_\X2\FF71FF78FF7EFF7BFF98FF70\X0\/OCA25_d14-20.stp','2021-03-16T01:11:59',(''),(''),'Spatial Interop R21 SP3','Kubotek KeyCreator 2011 V10.0.2 (22737)',' ');
FILE_SCHEMA(('automotive_design'));
ENDSEC;
DATA;
#1=MECHANICAL_DESIGN_GEOMETRIC_PRESENTATION_REPRESENTATION(' ',(#10,#11,#12,#13,#14,#15,#16,#17,#18,#19,#20,#21,#22,#23),#6);
#2=PRODUCT_DEFINITION_CONTEXT('',#24,'design');
#3=APPLICATION_PROTOCOL_DEFINITION('INTERNATIONAL STANDARD','automotive_design',1994,#24);
#4=PRODUCT_CATEGORY_RELATIONSHIP('NONE','NONE',#25,#26);
#5=SHAPE_DEFINITION_REPRESENTATION(#27,#28);
#6= (GEOMETRIC_REPRESENTATION_CONTEXT(3)GLOBAL_UNCERTAINTY_ASSIGNED_CONTEXT((#31))GLOBAL_UNIT_ASSIGNED_CONTEXT((#33,#34,#35))REPRESENTATION_CONTEXT('NONE','WORKSPACE'));
#10=STYLED_ITEM('',(#37,#38),#39);
#11=STYLED_ITEM('',(#40),#41);
#12=STYLED_ITEM('',(#42,#43),#44);
#13=STYLED_ITEM('',(#45,#46),#47);
#14=STYLED_ITEM('',(#48,#49),#50);
#15=STYLED_ITEM('',(#51),#52);
#16=STYLED_ITEM('',(#53,#54),#55);
#17=STYLED_ITEM('',(#56,#57),#58);
#18=STYLED_ITEM('',(#59),#60);
#19=STYLED_ITEM('',(#61),#62);
#20=STYLED_ITEM('',(#63,#64),#65);
#21=STYLED_ITEM('',(#66,#67),#68);
#22=STYLED_ITEM('',(#69),#70);
#23=STYLED_ITEM('',(#71),#72);
#24=APPLICATION_CONTEXT(' ');
#25=PRODUCT_CATEGORY('part','NONE');
#26=PRODUCT_RELATED_PRODUCT_CATEGORY('detail',' ',(#73));
#27=PRODUCT_DEFINITION_SHAPE('NONE','NONE',#74);
#28=ADVANCED_BREP_SHAPE_REPRESENTATION('Unnamed[1]',(#47,#75),#6);
#31=UNCERTAINTY_MEASURE_WITH_UNIT(LENGTH_MEASURE(1.0E-006),#33,'','');
#33= (CONVERSION_BASED_UNIT('MILLIMETRE',#78)LENGTH_UNIT()NAMED_UNIT(#81));
#34= (NAMED_UNIT(#83)PLANE_ANGLE_UNIT()SI_UNIT($,.RADIAN.));
#35= (NAMED_UNIT(#83)SOLID_ANGLE_UNIT()SI_UNIT($,.STERADIAN.));
#37=PRESENTATION_STYLE_ASSIGNMENT((#89));
#38=PRESENTATION_STYLE_ASSIGNMENT((#90));
#39=ADVANCED_FACE('Unnamed[1]',(#91,#92),#93,.T.);
#40=PRESENTATION_STYLE_ASSIGNMENT((#94));
#41=EDGE_CURVE('Unnamed[1]',#95,#95,#96,.T.);
#42=PRESENTATION_STYLE_ASSIGNMENT((#97));
#43=PRESENTATION_STYLE_ASSIGNMENT((#98));
#44=ADVANCED_FACE('Unnamed[1]',(#99,#100),#101,.T.);
#45=PRESENTATION_STYLE_ASSIGNMENT((#102));
#46=PRESENTATION_STYLE_ASSIGNMENT((#103));
#47=MANIFOLD_SOLID_BREP('Unnamed[1]',#104);
#48=PRESENTATION_STYLE_ASSIGNMENT((#105));
#49=PRESENTATION_STYLE_ASSIGNMENT((#106));
#50=ADVANCED_FACE('Unnamed[1]',(#107,#108),#109,.T.);
#51=PRESENTATION_STYLE_ASSIGNMENT((#110));
#52=EDGE_CURVE('Unnamed[1]',#111,#111,#112,.T.);
#53=PRESENTATION_STYLE_ASSIGNMENT((#113));
#54=PRESENTATION_STYLE_ASSIGNMENT((#114));
#55=ADVANCED_FACE('Unnamed[1]',(#115,#116),#117,.T.);
#56=PRESENTATION_STYLE_ASSIGNMENT((#118));
#57=PRESENTATION_STYLE_ASSIGNMENT((#119));
#58=ADVANCED_FACE('Unnamed[1]',(#120),#121,.T.);
#59=PRESENTATION_STYLE_ASSIGNMENT((#122));
#60=EDGE_CURVE('Unnamed[1]',#123,#123,#124,.T.);
#61=PRESENTATION_STYLE_ASSIGNMENT((#125));
#62=EDGE_CURVE('Unnamed[1]',#126,#126,#127,.T.);
#63=PRESENTATION_STYLE_ASSIGNMENT((#128));
#64=PRESENTATION_STYLE_ASSIGNMENT((#129));
#65=ADVANCED_FACE('Unnamed[1]',(#130),#131,.T.);
#66=PRESENTATION_STYLE_ASSIGNMENT((#132));
#67=PRESENTATION_STYLE_ASSIGNMENT((#133));
#68=ADVANCED_FACE('Unnamed[1]',(#134,#135),#136,.T.);
#69=PRESENTATION_STYLE_ASSIGNMENT((#137));
#70=EDGE_CURVE('Unnamed[1]',#138,#138,#139,.T.);
#71=PRESENTATION_STYLE_ASSIGNMENT((#140));
#72=EDGE_CURVE('Unnamed[1]',#141,#141,#142,.T.);
#73=PRODUCT('Unnamed[1]','Unnamed[1]','PART-Unnamed[1]-DESC',(#143));
#74=PRODUCT_DEFINITION('NONE','NONE',#144,#2);
#75=AXIS2_PLACEMENT_3D('',#145,#146,#147);
#78=LENGTH_MEASURE_WITH_UNIT(LENGTH_MEASURE(1.0),#148);
#81=DIMENSIONAL_EXPONENTS(1.0,0.0,0.0,0.0,0.0,0.0,0.0);
#83=DIMENSIONAL_EXPONENTS(0.0,0.0,0.0,0.0,0.0,0.0,0.0);
#89=SURFACE_STYLE_USAGE(.BOTH.,#149);
#90=CURVE_STYLE('',#150,POSITIVE_LENGTH_MEASURE(1000.0),#151);
#91=FACE_BOUND('',#152,.T.);
#92=FACE_BOUND('',#153,.T.);
#93=CYLINDRICAL_SURFACE('',#154,15.0);
#94=CURVE_STYLE('',#155,POSITIVE_LENGTH_MEASURE(1000.0),#156);
#95=VERTEX_POINT('',#157);
#96=CIRCLE('',#158,15.0);
#97=SURFACE_STYLE_USAGE(.BOTH.,#159);
#98=CURVE_STYLE('',#160,POSITIVE_LENGTH_MEASURE(1000.0),#161);
#99=FACE_BOUND('',#162,.T.);
#100=FACE_BOUND('',#163,.T.);
#101=CONICAL_SURFACE('',#164,14.6650635094611,0.261799387799151);
#102=SURFACE_STYLE_USAGE(.BOTH.,#165);
#103=CURVE_STYLE('',#166,POSITIVE_LENGTH_MEASURE(1000.0),#167);
#104=CLOSED_SHELL('',(#65,#50,#68,#44,#39,#55,#58));
#105=SURFACE_STYLE_USAGE(.BOTH.,#168);
#106=CURVE_STYLE('',#169,POSITIVE_LENGTH_MEASURE(1000.0),#170);
#107=FACE_BOUND('',#171,.T.);
#108=FACE_BOUND('',#172,.T.);
#109=CYLINDRICAL_SURFACE('',#173,12.5);
#110=CURVE_STYLE('',#174,POSITIVE_LENGTH_MEASURE(1000.0),#175);
#111=VERTEX_POINT('',#176);
#112=CIRCLE('',#177,14.3301270189222);
#113=SURFACE_STYLE_USAGE(.BOTH.,#178);
#114=CURVE_STYLE('',#179,POSITIVE_LENGTH_MEASURE(1000.0),#180);
#115=FACE_BOUND('',#181,.T.);
#116=FACE_BOUND('',#182,.T.);
#117=CONICAL_SURFACE('',#183,14.75,0.785398163397448);
#118=SURFACE_STYLE_USAGE(.BOTH.,#184);
#119=CURVE_STYLE('',#185,POSITIVE_LENGTH_MEASURE(1000.0),#186);
#120=FACE_OUTER_BOUND('',#187,.T.);
#121=PLANE('',#188);
#122=CURVE_STYLE('',#189,POSITIVE_LENGTH_MEASURE(1000.0),#190);
#123=VERTEX_POINT('',#191);
#124=CIRCLE('',#192,14.5);
#125=CURVE_STYLE('',#193,POSITIVE_LENGTH_MEASURE(1000.0),#194);
#126=VERTEX_POINT('',#195);
#127=CIRCLE('',#196,15.0);
#128=SURFACE_STYLE_USAGE(.BOTH.,#197);
#129=CURVE_STYLE('',#198,POSITIVE_LENGTH_MEASURE(1000.0),#199);
#130=FACE_OUTER_BOUND('',#200,.T.);
#131=PLANE('',#201);
#132=SURFACE_STYLE_USAGE(.BOTH.,#202);
#133=CURVE_STYLE('',#203,POSITIVE_LENGTH_MEASURE(1000.0),#204);
#134=FACE_OUTER_BOUND('',#205,.T.);
#135=FACE_BOUND('',#206,.T.);
#136=PLANE('',#207);
#137=CURVE_STYLE('',#208,POSITIVE_LENGTH_MEASURE(1000.0),#209);
#138=VERTEX_POINT('',#210);
#139=CIRCLE('',#211,12.5);
#140=CURVE_STYLE('',#212,POSITIVE_LENGTH_MEASURE(1000.0),#213);
#141=VERTEX_POINT('',#214);
#142=CIRCLE('',#215,12.5);
#143=PRODUCT_CONTEXT('',#24,'mechanical');
#144=PRODUCT_DEFINITION_FORMATION_WITH_SPECIFIED_SOURCE(' ','NONE',#73,.NOT_KNOWN.);
#145=CARTESIAN_POINT('',(0.0,0.0,0.0));
#146=DIRECTION('',(0.0,0.0,1.0));
#147=DIRECTION('',(1.0,0.0,0.0));
#148= (NAMED_UNIT(#81)LENGTH_UNIT()SI_UNIT(.MILLI.,.METRE.));
#149=SURFACE_SIDE_STYLE('',(#217));
#150=DRAUGHTING_PRE_DEFINED_CURVE_FONT('continuous');
#151=COLOUR_RGB('',0.0,1.0,0.0);
#152=EDGE_LOOP('',(#218));
#153=EDGE_LOOP('',(#219));
#154=AXIS2_PLACEMENT_3D('',#220,#221,#222);
#155=DRAUGHTING_PRE_DEFINED_CURVE_FONT('continuous');
#156=COLOUR_RGB('',0.0,1.0,0.0);
#157=CARTESIAN_POINT('',(-6.12323399573731E-017,15.0,1.00000000000009));
#158=AXIS2_PLACEMENT_3D('',#223,#224,#225);
#159=SURFACE_SIDE_STYLE('',(#226));
#160=DRAUGHTING_PRE_DEFINED_CURVE_FONT('continuous');
#161=COLOUR_RGB('',0.0,1.0,0.0);
#162=EDGE_LOOP('',(#227));
#163=EDGE_LOOP('',(#228));
#164=AXIS2_PLACEMENT_3D('',#229,#230,#231);
#165=SURFACE_SIDE_STYLE('',(#232));
#166=DRAUGHTING_PRE_DEFINED_CURVE_FONT('continuous');
#167=COLOUR_RGB('',0.0,1.0,0.0);
#168=SURFACE_SIDE_STYLE('',(#233));
#169=DRAUGHTING_PRE_DEFINED_CURVE_FONT('continuous');
#170=COLOUR_RGB('',0.0,1.0,0.0);
#171=EDGE_LOOP('',(#234));
#172=EDGE_LOOP('',(#235));
#173=AXIS2_PLACEMENT_3D('',#236,#237,#238);
#174=DRAUGHTING_PRE_DEFINED_CURVE_FONT('continuous');
#175=COLOUR_RGB('',0.0,1.0,0.0);
#176=CARTESIAN_POINT('',(-2.14313189850787E-016,14.3301270189222,3.5));
#177=AXIS2_PLACEMENT_3D('',#239,#240,#241);
#178=SURFACE_SIDE_STYLE('',(#242));
#179=DRAUGHTING_PRE_DEFINED_CURVE_FONT('continuous');
#180=COLOUR_RGB('',0.0,1.0,0.0);
#181=EDGE_LOOP('',(#243));
#182=EDGE_LOOP('',(#244));
#183=AXIS2_PLACEMENT_3D('',#245,#246,#247);
#184=SURFACE_SIDE_STYLE('',(#248));
#185=DRAUGHTING_PRE_DEFINED_CURVE_FONT('continuous');
#186=COLOUR_RGB('',0.0,1.0,0.0);
#187=EDGE_LOOP('',(#249));
#188=AXIS2_PLACEMENT_3D('',#250,#251,#252);
#189=DRAUGHTING_PRE_DEFINED_CURVE_FONT('continuous');
#190=COLOUR_RGB('',0.0,1.0,0.0);
#191=CARTESIAN_POINT('',(-1.72563323017096E-031,14.5,1.77635683940025E-015));
#192=AXIS2_PLACEMENT_3D('',#253,#254,#255);
#193=DRAUGHTING_PRE_DEFINED_CURVE_FONT('continuous');
#194=COLOUR_RGB('',0.0,1.0,0.0);
#195=CARTESIAN_POINT('',(-3.0616169978684E-017,15.0,0.500000000000002));
#196=AXIS2_PLACEMENT_3D('',#256,#257,#258);
#197=SURFACE_SIDE_STYLE('',(#259));
#198=DRAUGHTING_PRE_DEFINED_CURVE_FONT('continuous');
#199=COLOUR_RGB('',0.0,1.0,0.0);
#200=EDGE_LOOP('',(#260));
#201=AXIS2_PLACEMENT_3D('',#261,#262,#263);
#202=SURFACE_SIDE_STYLE('',(#264));
#203=DRAUGHTING_PRE_DEFINED_CURVE_FONT('continuous');
#204=COLOUR_RGB('',0.0,1.0,0.0);
#205=EDGE_LOOP('',(#265));
#206=EDGE_LOOP('',(#266));
#207=AXIS2_PLACEMENT_3D('',#267,#268,#269);
#208=DRAUGHTING_PRE_DEFINED_CURVE_FONT('continuous');
#209=COLOUR_RGB('',0.0,1.0,0.0);
#210=CARTESIAN_POINT('',(-2.14313189850787E-016,12.5,3.5));
#211=AXIS2_PLACEMENT_3D('',#270,#271,#272);
#212=DRAUGHTING_PRE_DEFINED_CURVE_FONT('continuous');
#213=COLOUR_RGB('',0.0,1.0,0.0);
#214=CARTESIAN_POINT('',(-4.37811230695179E-015,12.5,71.5));
#215=AXIS2_PLACEMENT_3D('',#273,#274,#275);
#217=SURFACE_STYLE_FILL_AREA(#276);
#218=ORIENTED_EDGE('',*,*,#62,.F.);
#219=ORIENTED_EDGE('',*,*,#41,.T.);
#220=CARTESIAN_POINT('',(-4.59242549680284E-017,-9.18485099360568E-017,0.750000000000044));
#221=DIRECTION('',(6.12323399573677E-017,1.22464679914735E-016,-1.0));
#222=DIRECTION('',(-1.23259516440783E-032,1.0,1.22464679914735E-016));
#223=CARTESIAN_POINT('',(-6.1232339957373E-017,-1.22464679914746E-016,1.00000000000009));
#224=DIRECTION('',(6.12323399573677E-017,1.22464679914735E-016,-1.0));
#225=DIRECTION('',(-1.23259516440783E-032,1.0,1.22464679914735E-016));
#226=SURFACE_STYLE_FILL_AREA(#277);
#227=ORIENTED_EDGE('',*,*,#41,.F.);
#228=ORIENTED_EDGE('',*,*,#52,.T.);
#229=CARTESIAN_POINT('',(-1.3777276490408E-016,-2.7554552980816E-016,2.25000000000004));
#230=DIRECTION('',(6.12323399573677E-017,1.22464679914735E-016,-1.0));
#231=DIRECTION('',(-1.23259516440783E-032,1.0,1.22464679914735E-016));
#232=SURFACE_STYLE_FILL_AREA(#278);
#233=SURFACE_STYLE_FILL_AREA(#279);
#234=ORIENTED_EDGE('',*,*,#70,.F.);
#235=ORIENTED_EDGE('',*,*,#72,.T.);
#236=CARTESIAN_POINT('',(-2.29621274840129E-015,-4.59242549680257E-015,37.5));
#237=DIRECTION('',(6.12323399573677E-017,1.22464679914735E-016,-1.0));
#238=DIRECTION('',(-1.23259516440783E-032,1.0,1.22464679914735E-016));
#239=CARTESIAN_POINT('',(-2.14313189850787E-016,-4.28626379701574E-016,3.5));
#240=DIRECTION('',(6.12323399573677E-017,1.22464679914735E-016,-1.0));
#241=DIRECTION('',(-1.23259516440783E-032,1.0,1.22464679914735E-016));
#242=SURFACE_STYLE_FILL_AREA(#280);
#243=ORIENTED_EDGE('',*,*,#60,.F.);
#244=ORIENTED_EDGE('',*,*,#62,.T.);
#245=CARTESIAN_POINT('',(-1.53080849893419E-017,-3.06161699786838E-017,0.25));
#246=DIRECTION('',(-6.12323399573677E-017,-1.22464679914735E-016,1.0));
#247=DIRECTION('',(-1.23259516440783E-032,1.0,1.22464679914735E-016));
#248=SURFACE_STYLE_FILL_AREA(#281);
#249=ORIENTED_EDGE('',*,*,#60,.T.);
#250=CARTESIAN_POINT('',(-9.86076131526265E-032,7.25,8.88178419700125E-016));
#251=DIRECTION('',(6.12323399573677E-017,1.22464679914735E-016,-1.0));
#252=DIRECTION('',(-1.23259516440783E-032,1.0,1.22464679914735E-016));
#253=CARTESIAN_POINT('',(0.0,0.0,0.0));
#254=DIRECTION('',(6.12323399573677E-017,1.22464679914735E-016,-1.0));
#255=DIRECTION('',(-1.23259516440783E-032,1.0,1.22464679914735E-016));
#256=CARTESIAN_POINT('',(-3.06161699786838E-017,-6.12323399573676E-017,0.5));
#257=DIRECTION('',(6.12323399573677E-017,1.22464679914735E-016,-1.0));
#258=DIRECTION('',(-1.23259516440783E-032,1.0,1.22464679914735E-016));
#259=SURFACE_STYLE_FILL_AREA(#282);
#260=ORIENTED_EDGE('',*,*,#72,.F.);
#261=CARTESIAN_POINT('',(-4.37811230695179E-015,6.24999999999999,71.5));
#262=DIRECTION('',(-6.12323399573677E-017,-1.22464679914735E-016,1.0));
#263=DIRECTION('',(1.23259516440783E-032,-1.0,-1.22464679914735E-016));
#264=SURFACE_STYLE_FILL_AREA(#283);
#265=ORIENTED_EDGE('',*,*,#52,.F.);
#266=ORIENTED_EDGE('',*,*,#70,.T.);
#267=CARTESIAN_POINT('',(-2.14313189850787E-016,13.4150635094611,3.5));
#268=DIRECTION('',(-6.12323399573677E-017,-1.22464679914735E-016,1.0));
#269=DIRECTION('',(1.23259516440783E-032,-1.0,-1.22464679914735E-016));
#270=CARTESIAN_POINT('',(-2.14313189850787E-016,-4.28626379701574E-016,3.5));
#271=DIRECTION('',(6.12323399573677E-017,1.22464679914735E-016,-1.0));
#272=DIRECTION('',(-1.23259516440783E-032,1.0,1.22464679914735E-016));
#273=CARTESIAN_POINT('',(-4.37811230695179E-015,-8.75622461390357E-015,71.5));
#274=DIRECTION('',(6.12323399573677E-017,1.22464679914735E-016,-1.0));
#275=DIRECTION('',(-1.23259516440783E-032,1.0,1.22464679914735E-016));
#276=FILL_AREA_STYLE('',(#284));
#277=FILL_AREA_STYLE('',(#285));
#278=FILL_AREA_STYLE('',(#286));
#279=FILL_AREA_STYLE('',(#287));
#280=FILL_AREA_STYLE('',(#288));
#281=FILL_AREA_STYLE('',(#289));
#282=FILL_AREA_STYLE('',(#290));
#283=FILL_AREA_STYLE('',(#291));
#284=FILL_AREA_STYLE_COLOUR('',#292);
#285=FILL_AREA_STYLE_COLOUR('',#293);
#286=FILL_AREA_STYLE_COLOUR('',#294);
#287=FILL_AREA_STYLE_COLOUR('',#295);
#288=FILL_AREA_STYLE_COLOUR('',#296);
#289=FILL_AREA_STYLE_COLOUR('',#297);
#290=FILL_AREA_STYLE_COLOUR('',#298);
#291=FILL_AREA_STYLE_COLOUR('',#299);
#292=COLOUR_RGB('',0.0,1.0,0.0);
#293=COLOUR_RGB('',0.0,1.0,0.0);
#294=COLOUR_RGB('',0.0,1.0,0.0);
#295=COLOUR_RGB('',0.0,1.0,0.0);
#296=COLOUR_RGB('',0.0,1.0,0.0);
#297=COLOUR_RGB('',0.0,1.0,0.0);
#298=COLOUR_RGB('',0.0,1.0,0.0);
#299=COLOUR_RGB('',0.0,1.0,0.0);
ENDSEC;
END-ISO-10303-21;
