ISO-10303-21;
HEADER;
FILE_DESCRIPTION((''),'1');
FILE_NAME('U:/Translate/02_3D_Field-HP\X2\FF71FF6FFF8CFF9F5916\X0\2013/02_Step_Field-HP\X2\FF71FF6FFF8CFF9F5916\X0\2013/66_\X2\FF71FF78FF7EFF7BFF98FF70\X0\/OCA20.stp','2015-02-17T02:21:12',(''),(''),'Spatial Interop R21 SP3','Kubotek KeyCreator 2011 V10.0.2 (22737)',' ');
FILE_SCHEMA(('automotive_design'));
ENDSEC;
DATA;
#1=MECHANICAL_DESIGN_GEOMETRIC_PRESENTATION_REPRESENTATION(' ',(#10,#11,#12,#13,#14,#15,#16,#17,#18,#19,#20,#21,#22,#23,#24,#25,#26,#27,#28,#29,#30,#31,#32,#33,#34),#6);
#2=PRODUCT_DEFINITION_CONTEXT('',#35,'design');
#3=APPLICATION_PROTOCOL_DEFINITION('INTERNATIONAL STANDARD','automotive_design',1994,#35);
#4=PRODUCT_CATEGORY_RELATIONSHIP('NONE','NONE',#36,#37);
#5=SHAPE_DEFINITION_REPRESENTATION(#38,#39);
#6= (GEOMETRIC_REPRESENTATION_CONTEXT(3)GLOBAL_UNCERTAINTY_ASSIGNED_CONTEXT((#42))GLOBAL_UNIT_ASSIGNED_CONTEXT((#44,#45,#46))REPRESENTATION_CONTEXT('NONE','WORKSPACE'));
#10=STYLED_ITEM('',(#48,#49),#50);
#11=STYLED_ITEM('',(#51),#52);
#12=STYLED_ITEM('',(#53,#54),#55);
#13=STYLED_ITEM('',(#56),#57);
#14=STYLED_ITEM('',(#58),#59);
#15=STYLED_ITEM('',(#60),#61);
#16=STYLED_ITEM('',(#62),#63);
#17=STYLED_ITEM('',(#64),#65);
#18=STYLED_ITEM('',(#66),#67);
#19=STYLED_ITEM('',(#68),#69);
#20=STYLED_ITEM('',(#70,#71),#72);
#21=STYLED_ITEM('',(#73,#74),#75);
#22=STYLED_ITEM('',(#76,#77),#78);
#23=STYLED_ITEM('',(#79,#80),#81);
#24=STYLED_ITEM('',(#82,#83),#84);
#25=STYLED_ITEM('',(#85),#86);
#26=STYLED_ITEM('',(#87,#88),#89);
#27=STYLED_ITEM('',(#90),#91);
#28=STYLED_ITEM('',(#92),#93);
#29=STYLED_ITEM('',(#94,#95),#96);
#30=STYLED_ITEM('',(#97,#98),#99);
#31=STYLED_ITEM('',(#100,#101),#102);
#32=STYLED_ITEM('',(#103),#104);
#33=STYLED_ITEM('',(#105,#106),#107);
#34=STYLED_ITEM('',(#108,#109),#110);
#35=APPLICATION_CONTEXT(' ');
#36=PRODUCT_CATEGORY('part','NONE');
#37=PRODUCT_RELATED_PRODUCT_CATEGORY('detail',' ',(#111));
#38=PRODUCT_DEFINITION_SHAPE('NONE','NONE',#112);
#39=ADVANCED_BREP_SHAPE_REPRESENTATION('Unnamed[1]',(#110,#113),#6);
#42=UNCERTAINTY_MEASURE_WITH_UNIT(LENGTH_MEASURE(1.0E-006),#44,'','');
#44= (CONVERSION_BASED_UNIT('MILLIMETRE',#116)LENGTH_UNIT()NAMED_UNIT(#119));
#45= (NAMED_UNIT(#121)PLANE_ANGLE_UNIT()SI_UNIT($,.RADIAN.));
#46= (NAMED_UNIT(#121)SOLID_ANGLE_UNIT()SI_UNIT($,.STERADIAN.));
#48=PRESENTATION_STYLE_ASSIGNMENT((#127));
#49=PRESENTATION_STYLE_ASSIGNMENT((#128));
#50=ADVANCED_FACE('Unnamed[1]',(#129,#130),#131,.T.);
#51=PRESENTATION_STYLE_ASSIGNMENT((#132));
#52=EDGE_CURVE('Unnamed[1]',#133,#133,#134,.T.);
#53=PRESENTATION_STYLE_ASSIGNMENT((#135));
#54=PRESENTATION_STYLE_ASSIGNMENT((#136));
#55=ADVANCED_FACE('Unnamed[1]',(#137,#138),#139,.T.);
#56=PRESENTATION_STYLE_ASSIGNMENT((#140));
#57=EDGE_CURVE('Unnamed[1]',#141,#141,#142,.T.);
#58=PRESENTATION_STYLE_ASSIGNMENT((#143));
#59=EDGE_CURVE('Unnamed[1]',#144,#144,#145,.T.);
#60=PRESENTATION_STYLE_ASSIGNMENT((#146));
#61=EDGE_CURVE('Unnamed[1]',#147,#147,#148,.T.);
#62=PRESENTATION_STYLE_ASSIGNMENT((#149));
#63=EDGE_CURVE('Unnamed[1]',#150,#150,#151,.T.);
#64=PRESENTATION_STYLE_ASSIGNMENT((#152));
#65=EDGE_CURVE('Unnamed[1]',#153,#153,#154,.T.);
#66=PRESENTATION_STYLE_ASSIGNMENT((#155));
#67=EDGE_CURVE('Unnamed[1]',#156,#156,#157,.T.);
#68=PRESENTATION_STYLE_ASSIGNMENT((#158));
#69=EDGE_CURVE('Unnamed[1]',#159,#159,#160,.T.);
#70=PRESENTATION_STYLE_ASSIGNMENT((#161));
#71=PRESENTATION_STYLE_ASSIGNMENT((#162));
#72=ADVANCED_FACE('Unnamed[1]',(#163,#164),#165,.T.);
#73=PRESENTATION_STYLE_ASSIGNMENT((#166));
#74=PRESENTATION_STYLE_ASSIGNMENT((#167));
#75=ADVANCED_FACE('Unnamed[1]',(#168,#169),#170,.T.);
#76=PRESENTATION_STYLE_ASSIGNMENT((#171));
#77=PRESENTATION_STYLE_ASSIGNMENT((#172));
#78=ADVANCED_FACE('Unnamed[1]',(#173,#174),#175,.T.);
#79=PRESENTATION_STYLE_ASSIGNMENT((#176));
#80=PRESENTATION_STYLE_ASSIGNMENT((#177));
#81=ADVANCED_FACE('Unnamed[1]',(#178,#179),#180,.T.);
#82=PRESENTATION_STYLE_ASSIGNMENT((#181));
#83=PRESENTATION_STYLE_ASSIGNMENT((#182));
#84=ADVANCED_FACE('Unnamed[1]',(#183,#184),#185,.T.);
#85=PRESENTATION_STYLE_ASSIGNMENT((#186));
#86=EDGE_CURVE('Unnamed[1]',#187,#187,#188,.T.);
#87=PRESENTATION_STYLE_ASSIGNMENT((#189));
#88=PRESENTATION_STYLE_ASSIGNMENT((#190));
#89=ADVANCED_FACE('Unnamed[1]',(#191,#192),#193,.F.);
#90=PRESENTATION_STYLE_ASSIGNMENT((#194));
#91=EDGE_CURVE('Unnamed[1]',#195,#195,#196,.T.);
#92=PRESENTATION_STYLE_ASSIGNMENT((#197));
#93=EDGE_CURVE('Unnamed[1]',#198,#198,#199,.T.);
#94=PRESENTATION_STYLE_ASSIGNMENT((#200));
#95=PRESENTATION_STYLE_ASSIGNMENT((#201));
#96=ADVANCED_FACE('Unnamed[1]',(#202,#203),#204,.T.);
#97=PRESENTATION_STYLE_ASSIGNMENT((#205));
#98=PRESENTATION_STYLE_ASSIGNMENT((#206));
#99=ADVANCED_FACE('Unnamed[1]',(#207,#208),#209,.T.);
#100=PRESENTATION_STYLE_ASSIGNMENT((#210));
#101=PRESENTATION_STYLE_ASSIGNMENT((#211));
#102=ADVANCED_FACE('Unnamed[1]',(#212,#213),#214,.T.);
#103=PRESENTATION_STYLE_ASSIGNMENT((#215));
#104=EDGE_CURVE('Unnamed[1]',#216,#216,#217,.T.);
#105=PRESENTATION_STYLE_ASSIGNMENT((#218));
#106=PRESENTATION_STYLE_ASSIGNMENT((#219));
#107=ADVANCED_FACE('Unnamed[1]',(#220,#221),#222,.T.);
#108=PRESENTATION_STYLE_ASSIGNMENT((#223));
#109=PRESENTATION_STYLE_ASSIGNMENT((#224));
#110=MANIFOLD_SOLID_BREP('Unnamed[1]',#225);
#111=PRODUCT('Unnamed[1]','Unnamed[1]','PART-Unnamed[1]-DESC',(#226));
#112=PRODUCT_DEFINITION('NONE','NONE',#227,#2);
#113=AXIS2_PLACEMENT_3D('',#228,#229,#230);
#116=LENGTH_MEASURE_WITH_UNIT(LENGTH_MEASURE(1.0),#231);
#119=DIMENSIONAL_EXPONENTS(1.0,0.0,0.0,0.0,0.0,0.0,0.0);
#121=DIMENSIONAL_EXPONENTS(0.0,0.0,0.0,0.0,0.0,0.0,0.0);
#127=SURFACE_STYLE_USAGE(.BOTH.,#232);
#128=CURVE_STYLE('',#233,POSITIVE_LENGTH_MEASURE(1000.0),#234);
#129=FACE_BOUND('',#235,.T.);
#130=FACE_BOUND('',#236,.T.);
#131=CYLINDRICAL_SURFACE('',#237,12.5);
#132=CURVE_STYLE('',#238,POSITIVE_LENGTH_MEASURE(1000.0),#239);
#133=VERTEX_POINT('',#240);
#134=CIRCLE('',#241,10.0);
#135=SURFACE_STYLE_USAGE(.BOTH.,#242);
#136=CURVE_STYLE('',#243,POSITIVE_LENGTH_MEASURE(1000.0),#244);
#137=FACE_BOUND('',#245,.T.);
#138=FACE_BOUND('',#246,.T.);
#139=CONICAL_SURFACE('',#247,12.232051,0.261799208258472);
#140=CURVE_STYLE('',#248,POSITIVE_LENGTH_MEASURE(1000.0),#249);
#141=VERTEX_POINT('',#250);
#142=CIRCLE('',#251,10.0);
#143=CURVE_STYLE('',#252,POSITIVE_LENGTH_MEASURE(1000.0),#253);
#144=VERTEX_POINT('',#254);
#145=CIRCLE('',#255,10.0);
#146=CURVE_STYLE('',#256,POSITIVE_LENGTH_MEASURE(1000.0),#257);
#147=VERTEX_POINT('',#258);
#148=CIRCLE('',#259,12.5);
#149=CURVE_STYLE('',#260,POSITIVE_LENGTH_MEASURE(1000.0),#261);
#150=VERTEX_POINT('',#262);
#151=CIRCLE('',#263,9.69999999999999);
#152=CURVE_STYLE('',#264,POSITIVE_LENGTH_MEASURE(1000.0),#265);
#153=VERTEX_POINT('',#266);
#154=CIRCLE('',#267,9.69999999999999);
#155=CURVE_STYLE('',#268,POSITIVE_LENGTH_MEASURE(1000.0),#269);
#156=VERTEX_POINT('',#270);
#157=CIRCLE('',#271,11.964102);
#158=CURVE_STYLE('',#272,POSITIVE_LENGTH_MEASURE(1000.0),#273);
#159=VERTEX_POINT('',#274);
#160=CIRCLE('',#275,10.0);
#161=SURFACE_STYLE_USAGE(.BOTH.,#276);
#162=CURVE_STYLE('',#277,POSITIVE_LENGTH_MEASURE(1000.0),#278);
#163=FACE_BOUND('',#279,.T.);
#164=FACE_BOUND('',#280,.T.);
#165=CYLINDRICAL_SURFACE('',#281,10.0);
#166=SURFACE_STYLE_USAGE(.BOTH.,#282);
#167=CURVE_STYLE('',#283,POSITIVE_LENGTH_MEASURE(1000.0),#284);
#168=FACE_BOUND('',#285,.T.);
#169=FACE_OUTER_BOUND('',#286,.T.);
#170=PLANE('',#287);
#171=SURFACE_STYLE_USAGE(.BOTH.,#288);
#172=CURVE_STYLE('',#289,POSITIVE_LENGTH_MEASURE(1000.0),#290);
#173=FACE_BOUND('',#291,.T.);
#174=FACE_BOUND('',#292,.T.);
#175=CONICAL_SURFACE('',#293,9.84999999999999,0.785398163397448);
#176=SURFACE_STYLE_USAGE(.BOTH.,#294);
#177=CURVE_STYLE('',#295,POSITIVE_LENGTH_MEASURE(1000.0),#296);
#178=FACE_BOUND('',#297,.T.);
#179=FACE_BOUND('',#298,.T.);
#180=CONICAL_SURFACE('',#299,12.433013,0.261798275245491);
#181=SURFACE_STYLE_USAGE(.BOTH.,#300);
#182=CURVE_STYLE('',#301,POSITIVE_LENGTH_MEASURE(1000.0),#302);
#183=FACE_BOUND('',#303,.T.);
#184=FACE_BOUND('',#304,.T.);
#185=CONICAL_SURFACE('',#305,9.84999999999999,0.78539816339746);
#186=CURVE_STYLE('',#306,POSITIVE_LENGTH_MEASURE(1000.0),#307);
#187=VERTEX_POINT('',#308);
#188=CIRCLE('',#309,8.0);
#189=SURFACE_STYLE_USAGE(.BOTH.,#310);
#190=CURVE_STYLE('',#311,POSITIVE_LENGTH_MEASURE(1000.0),#312);
#191=FACE_BOUND('',#313,.T.);
#192=FACE_BOUND('',#314,.T.);
#193=CYLINDRICAL_SURFACE('',#315,8.0);
#194=CURVE_STYLE('',#316,POSITIVE_LENGTH_MEASURE(1000.0),#317);
#195=VERTEX_POINT('',#318);
#196=CIRCLE('',#319,12.366026);
#197=CURVE_STYLE('',#320,POSITIVE_LENGTH_MEASURE(1000.0),#321);
#198=VERTEX_POINT('',#322);
#199=CIRCLE('',#323,8.0);
#200=SURFACE_STYLE_USAGE(.BOTH.,#324);
#201=CURVE_STYLE('',#325,POSITIVE_LENGTH_MEASURE(1000.0),#326);
#202=FACE_BOUND('',#327,.T.);
#203=FACE_BOUND('',#328,.T.);
#204=CYLINDRICAL_SURFACE('',#329,9.69999999999999);
#205=SURFACE_STYLE_USAGE(.BOTH.,#330);
#206=CURVE_STYLE('',#331,POSITIVE_LENGTH_MEASURE(1000.0),#332);
#207=FACE_OUTER_BOUND('',#333,.T.);
#208=FACE_BOUND('',#334,.T.);
#209=PLANE('',#335);
#210=SURFACE_STYLE_USAGE(.BOTH.,#336);
#211=CURVE_STYLE('',#337,POSITIVE_LENGTH_MEASURE(1000.0),#338);
#212=FACE_BOUND('',#339,.T.);
#213=FACE_BOUND('',#340,.T.);
#214=CYLINDRICAL_SURFACE('',#341,10.0);
#215=CURVE_STYLE('',#342,POSITIVE_LENGTH_MEASURE(1000.0),#343);
#216=VERTEX_POINT('',#344);
#217=CIRCLE('',#345,12.5);
#218=SURFACE_STYLE_USAGE(.BOTH.,#346);
#219=CURVE_STYLE('',#347,POSITIVE_LENGTH_MEASURE(1000.0),#348);
#220=FACE_OUTER_BOUND('',#349,.T.);
#221=FACE_BOUND('',#350,.T.);
#222=PLANE('',#351);
#223=SURFACE_STYLE_USAGE(.BOTH.,#352);
#224=CURVE_STYLE('',#353,POSITIVE_LENGTH_MEASURE(1000.0),#354);
#225=CLOSED_SHELL('',(#99,#102,#78,#96,#84,#72,#107,#55,#50,#81,#75,#89));
#226=PRODUCT_CONTEXT('',#35,'mechanical');
#227=PRODUCT_DEFINITION_FORMATION_WITH_SPECIFIED_SOURCE(' ','NONE',#111,.NOT_KNOWN.);
#228=CARTESIAN_POINT('',(0.0,0.0,0.0));
#229=DIRECTION('',(0.0,0.0,1.0));
#230=DIRECTION('',(1.0,0.0,0.0));
#231= (NAMED_UNIT(#119)LENGTH_UNIT()SI_UNIT(.MILLI.,.METRE.));
#232=SURFACE_SIDE_STYLE('',(#356));
#233=DRAUGHTING_PRE_DEFINED_CURVE_FONT('continuous');
#234=COLOUR_RGB('',0.0,1.0,0.0);
#235=EDGE_LOOP('',(#357));
#236=EDGE_LOOP('',(#358));
#237=AXIS2_PLACEMENT_3D('',#359,#360,#361);
#238=DRAUGHTING_PRE_DEFINED_CURVE_FONT('continuous');
#239=COLOUR_RGB('',0.0,1.0,0.0);
#240=CARTESIAN_POINT('',(-3.73517273739943E-015,9.99999999999999,61.0));
#241=AXIS2_PLACEMENT_3D('',#362,#363,#364);
#242=SURFACE_SIDE_STYLE('',(#365));
#243=DRAUGHTING_PRE_DEFINED_CURVE_FONT('continuous');
#244=COLOUR_RGB('',0.0,1.0,0.0);
#245=EDGE_LOOP('',(#366));
#246=EDGE_LOOP('',(#367));
#247=AXIS2_PLACEMENT_3D('',#368,#369,#370);
#248=DRAUGHTING_PRE_DEFINED_CURVE_FONT('continuous');
#249=COLOUR_RGB('',0.0,1.0,0.0);
#250=CARTESIAN_POINT('',(-2.86567351000481E-015,9.99999999999999,46.8));
#251=AXIS2_PLACEMENT_3D('',#371,#372,#373);
#252=DRAUGHTING_PRE_DEFINED_CURVE_FONT('continuous');
#253=COLOUR_RGB('',0.0,1.0,0.0);
#254=CARTESIAN_POINT('',(-1.83697019872103E-016,10.0,3.0));
#255=AXIS2_PLACEMENT_3D('',#374,#375,#376);
#256=DRAUGHTING_PRE_DEFINED_CURVE_FONT('continuous');
#257=COLOUR_RGB('',0.0,1.0,0.0);
#258=CARTESIAN_POINT('',(-3.0616169978684E-017,12.5,0.500000000000001));
#259=AXIS2_PLACEMENT_3D('',#377,#378,#379);
#260=DRAUGHTING_PRE_DEFINED_CURVE_FONT('continuous');
#261=COLOUR_RGB('',0.0,1.0,0.0);
#262=CARTESIAN_POINT('',(-2.47990976827339E-015,9.69999999999998,40.5));
#263=AXIS2_PLACEMENT_3D('',#380,#381,#382);
#264=DRAUGHTING_PRE_DEFINED_CURVE_FONT('continuous');
#265=COLOUR_RGB('',0.0,1.0,0.0);
#266=CARTESIAN_POINT('',(-2.8473038080176E-015,9.69999999999998,46.5));
#267=AXIS2_PLACEMENT_3D('',#383,#384,#385);
#268=DRAUGHTING_PRE_DEFINED_CURVE_FONT('continuous');
#269=COLOUR_RGB('',0.0,1.0,0.0);
#270=CARTESIAN_POINT('',(-1.83697019872103E-016,11.964102,3.0));
#271=AXIS2_PLACEMENT_3D('',#386,#387,#388);
#272=DRAUGHTING_PRE_DEFINED_CURVE_FONT('continuous');
#273=COLOUR_RGB('',0.0,1.0,0.0);
#274=CARTESIAN_POINT('',(-2.46154006628618E-015,9.99999999999999,40.2));
#275=AXIS2_PLACEMENT_3D('',#389,#390,#391);
#276=SURFACE_SIDE_STYLE('',(#392));
#277=DRAUGHTING_PRE_DEFINED_CURVE_FONT('continuous');
#278=COLOUR_RGB('',0.0,1.0,0.0);
#279=EDGE_LOOP('',(#393));
#280=EDGE_LOOP('',(#394));
#281=AXIS2_PLACEMENT_3D('',#395,#396,#397);
#282=SURFACE_SIDE_STYLE('',(#398));
#283=DRAUGHTING_PRE_DEFINED_CURVE_FONT('continuous');
#284=COLOUR_RGB('',0.0,1.0,0.0);
#285=EDGE_LOOP('',(#399));
#286=EDGE_LOOP('',(#400));
#287=AXIS2_PLACEMENT_3D('',#401,#402,#403);
#288=SURFACE_SIDE_STYLE('',(#404));
#289=DRAUGHTING_PRE_DEFINED_CURVE_FONT('continuous');
#290=COLOUR_RGB('',0.0,1.0,0.0);
#291=EDGE_LOOP('',(#405));
#292=EDGE_LOOP('',(#406));
#293=AXIS2_PLACEMENT_3D('',#407,#408,#409);
#294=SURFACE_SIDE_STYLE('',(#410));
#295=DRAUGHTING_PRE_DEFINED_CURVE_FONT('continuous');
#296=COLOUR_RGB('',0.0,1.0,0.0);
#297=EDGE_LOOP('',(#411));
#298=EDGE_LOOP('',(#412));
#299=AXIS2_PLACEMENT_3D('',#413,#414,#415);
#300=SURFACE_SIDE_STYLE('',(#416));
#301=DRAUGHTING_PRE_DEFINED_CURVE_FONT('continuous');
#302=COLOUR_RGB('',0.0,1.0,0.0);
#303=EDGE_LOOP('',(#417));
#304=EDGE_LOOP('',(#418));
#305=AXIS2_PLACEMENT_3D('',#419,#420,#421);
#306=DRAUGHTING_PRE_DEFINED_CURVE_FONT('continuous');
#307=COLOUR_RGB('',0.0,1.0,0.0);
#308=CARTESIAN_POINT('',(-3.73517273739943E-015,7.99999999999999,61.0));
#309=AXIS2_PLACEMENT_3D('',#422,#423,#424);
#310=SURFACE_SIDE_STYLE('',(#425));
#311=DRAUGHTING_PRE_DEFINED_CURVE_FONT('continuous');
#312=COLOUR_RGB('',0.0,1.0,0.0);
#313=EDGE_LOOP('',(#426));
#314=EDGE_LOOP('',(#427));
#315=AXIS2_PLACEMENT_3D('',#428,#429,#430);
#316=DRAUGHTING_PRE_DEFINED_CURVE_FONT('continuous');
#317=COLOUR_RGB('',0.0,1.0,0.0);
#318=CARTESIAN_POINT('',(-1.4791141972894E-031,12.366026,1.33226762955019E-015));
#319=AXIS2_PLACEMENT_3D('',#431,#432,#433);
#320=DRAUGHTING_PRE_DEFINED_CURVE_FONT('continuous');
#321=COLOUR_RGB('',0.0,1.0,0.0);
#322=CARTESIAN_POINT('',(-9.86076131526265E-032,8.0,8.88178419700125E-016));
#323=AXIS2_PLACEMENT_3D('',#434,#435,#436);
#324=SURFACE_SIDE_STYLE('',(#437));
#325=DRAUGHTING_PRE_DEFINED_CURVE_FONT('continuous');
#326=COLOUR_RGB('',0.0,1.0,0.0);
#327=EDGE_LOOP('',(#438));
#328=EDGE_LOOP('',(#439));
#329=AXIS2_PLACEMENT_3D('',#440,#441,#442);
#330=SURFACE_SIDE_STYLE('',(#443));
#331=DRAUGHTING_PRE_DEFINED_CURVE_FONT('continuous');
#332=COLOUR_RGB('',0.0,1.0,0.0);
#333=EDGE_LOOP('',(#444));
#334=EDGE_LOOP('',(#445));
#335=AXIS2_PLACEMENT_3D('',#446,#447,#448);
#336=SURFACE_SIDE_STYLE('',(#449));
#337=DRAUGHTING_PRE_DEFINED_CURVE_FONT('continuous');
#338=COLOUR_RGB('',0.0,1.0,0.0);
#339=EDGE_LOOP('',(#450));
#340=EDGE_LOOP('',(#451));
#341=AXIS2_PLACEMENT_3D('',#452,#453,#454);
#342=DRAUGHTING_PRE_DEFINED_CURVE_FONT('continuous');
#343=COLOUR_RGB('',0.0,1.0,0.0);
#344=CARTESIAN_POINT('',(-6.12323399573678E-017,12.5,1.0));
#345=AXIS2_PLACEMENT_3D('',#455,#456,#457);
#346=SURFACE_SIDE_STYLE('',(#458));
#347=DRAUGHTING_PRE_DEFINED_CURVE_FONT('continuous');
#348=COLOUR_RGB('',0.0,1.0,0.0);
#349=EDGE_LOOP('',(#459));
#350=EDGE_LOOP('',(#460));
#351=AXIS2_PLACEMENT_3D('',#461,#462,#463);
#352=SURFACE_SIDE_STYLE('',(#464));
#353=DRAUGHTING_PRE_DEFINED_CURVE_FONT('continuous');
#354=COLOUR_RGB('',0.0,1.0,0.0);
#356=SURFACE_STYLE_FILL_AREA(#465);
#357=ORIENTED_EDGE('',*,*,#61,.F.);
#358=ORIENTED_EDGE('',*,*,#104,.T.);
#359=CARTESIAN_POINT('',(-4.59242549680257E-017,-9.18485099360515E-017,0.75));
#360=DIRECTION('',(6.12323399573677E-017,1.22464679914735E-016,-1.0));
#361=DIRECTION('',(-1.23259516440783E-032,1.0,1.22464679914735E-016));
#362=CARTESIAN_POINT('',(-3.73517273739943E-015,-7.47034547479885E-015,61.0));
#363=DIRECTION('',(6.12323399573677E-017,1.22464679914735E-016,-1.0));
#364=DIRECTION('',(-1.23259516440783E-032,1.0,1.22464679914735E-016));
#365=SURFACE_STYLE_FILL_AREA(#466);
#366=ORIENTED_EDGE('',*,*,#104,.F.);
#367=ORIENTED_EDGE('',*,*,#67,.T.);
#368=CARTESIAN_POINT('',(-1.22464679914735E-016,-2.44929359829471E-016,2.0));
#369=DIRECTION('',(6.12323399573677E-017,1.22464679914735E-016,-1.0));
#370=DIRECTION('',(-1.23259516440783E-032,1.0,1.22464679914735E-016));
#371=CARTESIAN_POINT('',(-2.86567351000481E-015,-5.73134702000961E-015,46.8));
#372=DIRECTION('',(6.12323399573677E-017,1.22464679914735E-016,-1.0));
#373=DIRECTION('',(-1.23259516440783E-032,1.0,1.22464679914735E-016));
#374=CARTESIAN_POINT('',(-1.83697019872103E-016,-3.67394039744206E-016,3.0));
#375=DIRECTION('',(6.12323399573677E-017,1.22464679914735E-016,-1.0));
#376=DIRECTION('',(-1.23259516440783E-032,1.0,1.22464679914735E-016));
#377=CARTESIAN_POINT('',(-3.06161699786838E-017,-6.12323399573676E-017,0.5));
#378=DIRECTION('',(6.12323399573677E-017,1.22464679914735E-016,-1.0));
#379=DIRECTION('',(-1.23259516440783E-032,1.0,1.22464679914735E-016));
#380=CARTESIAN_POINT('',(-2.47990976827339E-015,-4.95981953654678E-015,40.5));
#381=DIRECTION('',(6.12323399573677E-017,1.22464679914735E-016,-1.0));
#382=DIRECTION('',(-1.23259516440783E-032,1.0,1.22464679914735E-016));
#383=CARTESIAN_POINT('',(-2.8473038080176E-015,-5.69460761603519E-015,46.5));
#384=DIRECTION('',(6.12323399573677E-017,1.22464679914735E-016,-1.0));
#385=DIRECTION('',(-1.23259516440783E-032,1.0,1.22464679914735E-016));
#386=CARTESIAN_POINT('',(-1.83697019872103E-016,-3.67394039744206E-016,3.0));
#387=DIRECTION('',(6.12323399573677E-017,1.22464679914735E-016,-1.0));
#388=DIRECTION('',(-1.23259516440783E-032,1.0,1.22464679914735E-016));
#389=CARTESIAN_POINT('',(-2.46154006628618E-015,-4.92308013257236E-015,40.2));
#390=DIRECTION('',(6.12323399573677E-017,1.22464679914735E-016,-1.0));
#391=DIRECTION('',(-1.23259516440783E-032,1.0,1.22464679914735E-016));
#392=SURFACE_STYLE_FILL_AREA(#467);
#393=ORIENTED_EDGE('',*,*,#59,.F.);
#394=ORIENTED_EDGE('',*,*,#69,.T.);
#395=CARTESIAN_POINT('',(-1.32261854307914E-015,-2.64523708615828E-015,21.6));
#396=DIRECTION('',(6.12323399573677E-017,1.22464679914735E-016,-1.0));
#397=DIRECTION('',(-1.23259516440783E-032,1.0,1.22464679914735E-016));
#398=SURFACE_STYLE_FILL_AREA(#468);
#399=ORIENTED_EDGE('',*,*,#93,.F.);
#400=ORIENTED_EDGE('',*,*,#91,.T.);
#401=CARTESIAN_POINT('',(-1.23259516440783E-031,10.183013,1.33226762955019E-015));
#402=DIRECTION('',(6.12323399573677E-017,1.22464679914735E-016,-1.0));
#403=DIRECTION('',(-1.23259516440783E-032,1.0,1.22464679914735E-016));
#404=SURFACE_STYLE_FILL_AREA(#469);
#405=ORIENTED_EDGE('',*,*,#65,.F.);
#406=ORIENTED_EDGE('',*,*,#57,.T.);
#407=CARTESIAN_POINT('',(-2.8564886590112E-015,-5.7129773180224E-015,46.65));
#408=DIRECTION('',(-6.12323399573677E-017,-1.22464679914735E-016,1.0));
#409=DIRECTION('',(-1.23259516440783E-032,1.0,1.22464679914735E-016));
#410=SURFACE_STYLE_FILL_AREA(#470);
#411=ORIENTED_EDGE('',*,*,#91,.F.);
#412=ORIENTED_EDGE('',*,*,#61,.T.);
#413=CARTESIAN_POINT('',(-1.53080849893419E-017,-3.06161699786838E-017,0.25));
#414=DIRECTION('',(-6.12323399573676E-017,-1.22464679914735E-016,1.0));
#415=DIRECTION('',(-1.23259516440783E-032,1.0,1.22464679914735E-016));
#416=SURFACE_STYLE_FILL_AREA(#471);
#417=ORIENTED_EDGE('',*,*,#69,.F.);
#418=ORIENTED_EDGE('',*,*,#63,.T.);
#419=CARTESIAN_POINT('',(-2.47072491727978E-015,-4.94144983455957E-015,40.35));
#420=DIRECTION('',(6.12323399573677E-017,1.22464679914735E-016,-1.0));
#421=DIRECTION('',(-1.23259516440783E-032,1.0,1.22464679914735E-016));
#422=CARTESIAN_POINT('',(-3.73517273739943E-015,-7.47034547479885E-015,61.0));
#423=DIRECTION('',(6.12323399573677E-017,1.22464679914735E-016,-1.0));
#424=DIRECTION('',(-1.23259516440783E-032,1.0,1.22464679914735E-016));
#425=SURFACE_STYLE_FILL_AREA(#472);
#426=ORIENTED_EDGE('',*,*,#86,.F.);
#427=ORIENTED_EDGE('',*,*,#93,.T.);
#428=CARTESIAN_POINT('',(-1.86758636869971E-015,-3.73517273739943E-015,30.5));
#429=DIRECTION('',(6.12323399573677E-017,1.22464679914735E-016,-1.0));
#430=DIRECTION('',(-1.23259516440783E-032,1.0,1.22464679914735E-016));
#431=CARTESIAN_POINT('',(0.0,0.0,0.0));
#432=DIRECTION('',(6.12323399573677E-017,1.22464679914735E-016,-1.0));
#433=DIRECTION('',(-1.23259516440783E-032,1.0,1.22464679914735E-016));
#434=CARTESIAN_POINT('',(0.0,0.0,0.0));
#435=DIRECTION('',(6.12323399573677E-017,1.22464679914735E-016,-1.0));
#436=DIRECTION('',(-1.23259516440783E-032,1.0,1.22464679914735E-016));
#437=SURFACE_STYLE_FILL_AREA(#473);
#438=ORIENTED_EDGE('',*,*,#63,.F.);
#439=ORIENTED_EDGE('',*,*,#65,.T.);
#440=CARTESIAN_POINT('',(-2.66360678814549E-015,-5.32721357629098E-015,43.5));
#441=DIRECTION('',(6.12323399573677E-017,1.22464679914735E-016,-1.0));
#442=DIRECTION('',(-1.23259516440783E-032,1.0,1.22464679914735E-016));
#443=SURFACE_STYLE_FILL_AREA(#474);
#444=ORIENTED_EDGE('',*,*,#52,.F.);
#445=ORIENTED_EDGE('',*,*,#86,.T.);
#446=CARTESIAN_POINT('',(-3.73517273739943E-015,8.99999999999999,61.0));
#447=DIRECTION('',(-6.12323399573677E-017,-1.22464679914735E-016,1.0));
#448=DIRECTION('',(1.23259516440783E-032,-1.0,-1.22464679914735E-016));
#449=SURFACE_STYLE_FILL_AREA(#475);
#450=ORIENTED_EDGE('',*,*,#57,.F.);
#451=ORIENTED_EDGE('',*,*,#52,.T.);
#452=CARTESIAN_POINT('',(-3.30042312370212E-015,-6.60084624740423E-015,53.9));
#453=DIRECTION('',(6.12323399573677E-017,1.22464679914735E-016,-1.0));
#454=DIRECTION('',(-1.23259516440783E-032,1.0,1.22464679914735E-016));
#455=CARTESIAN_POINT('',(-6.12323399573676E-017,-1.22464679914735E-016,1.0));
#456=DIRECTION('',(6.12323399573677E-017,1.22464679914735E-016,-1.0));
#457=DIRECTION('',(-1.23259516440783E-032,1.0,1.22464679914735E-016));
#458=SURFACE_STYLE_FILL_AREA(#476);
#459=ORIENTED_EDGE('',*,*,#67,.F.);
#460=ORIENTED_EDGE('',*,*,#59,.T.);
#461=CARTESIAN_POINT('',(-1.83697019872103E-016,10.982051,3.0));
#462=DIRECTION('',(-6.12323399573677E-017,-1.22464679914735E-016,1.0));
#463=DIRECTION('',(1.23259516440783E-032,-1.0,-1.22464679914735E-016));
#464=SURFACE_STYLE_FILL_AREA(#477);
#465=FILL_AREA_STYLE('',(#478));
#466=FILL_AREA_STYLE('',(#479));
#467=FILL_AREA_STYLE('',(#480));
#468=FILL_AREA_STYLE('',(#481));
#469=FILL_AREA_STYLE('',(#482));
#470=FILL_AREA_STYLE('',(#483));
#471=FILL_AREA_STYLE('',(#484));
#472=FILL_AREA_STYLE('',(#485));
#473=FILL_AREA_STYLE('',(#486));
#474=FILL_AREA_STYLE('',(#487));
#475=FILL_AREA_STYLE('',(#488));
#476=FILL_AREA_STYLE('',(#489));
#477=FILL_AREA_STYLE('',(#490));
#478=FILL_AREA_STYLE_COLOUR('',#491);
#479=FILL_AREA_STYLE_COLOUR('',#492);
#480=FILL_AREA_STYLE_COLOUR('',#493);
#481=FILL_AREA_STYLE_COLOUR('',#494);
#482=FILL_AREA_STYLE_COLOUR('',#495);
#483=FILL_AREA_STYLE_COLOUR('',#496);
#484=FILL_AREA_STYLE_COLOUR('',#497);
#485=FILL_AREA_STYLE_COLOUR('',#498);
#486=FILL_AREA_STYLE_COLOUR('',#499);
#487=FILL_AREA_STYLE_COLOUR('',#500);
#488=FILL_AREA_STYLE_COLOUR('',#501);
#489=FILL_AREA_STYLE_COLOUR('',#502);
#490=FILL_AREA_STYLE_COLOUR('',#503);
#491=COLOUR_RGB('',0.0,1.0,0.0);
#492=COLOUR_RGB('',0.0,1.0,0.0);
#493=COLOUR_RGB('',0.0,1.0,0.0);
#494=COLOUR_RGB('',0.0,1.0,0.0);
#495=COLOUR_RGB('',0.0,1.0,0.0);
#496=COLOUR_RGB('',0.0,1.0,0.0);
#497=COLOUR_RGB('',0.0,1.0,0.0);
#498=COLOUR_RGB('',0.0,1.0,0.0);
#499=COLOUR_RGB('',0.0,1.0,0.0);
#500=COLOUR_RGB('',0.0,1.0,0.0);
#501=COLOUR_RGB('',0.0,1.0,0.0);
#502=COLOUR_RGB('',0.0,1.0,0.0);
#503=COLOUR_RGB('',0.0,1.0,0.0);
ENDSEC;
END-ISO-10303-21;
