ISO-10303-21;
HEADER;
FILE_DESCRIPTION((''),'1');
FILE_NAME('T:/02_3D_Field-HP\X2\FF71FF6FFF8CFF9F5916\X0\2013/02_Step_Field-HP\X2\FF71FF6FFF8CFF9F5916\X0\2013/66_\X2\FF71FF78FF7EFF7BFF98FF70\X0\/MPS16-06065_0607.stp','2017-02-20T06:42:56',(''),(''),'Spatial Interop R21 SP3','Kubotek KeyCreator 2011 V10.0.2 (22737)',' ');
FILE_SCHEMA(('automotive_design'));
ENDSEC;
DATA;
#1=MECHANICAL_DESIGN_GEOMETRIC_PRESENTATION_REPRESENTATION(' ',(#10,#11,#12,#13,#14,#15,#16,#17,#18,#19,#20,#21,#22,#23),#6);
#2=PRODUCT_DEFINITION_CONTEXT('',#24,'design');
#3=APPLICATION_PROTOCOL_DEFINITION('INTERNATIONAL STANDARD','automotive_design',1994,#24);
#4=PRODUCT_CATEGORY_RELATIONSHIP('NONE','NONE',#25,#26);
#5=SHAPE_DEFINITION_REPRESENTATION(#27,#28);
#6= (GEOMETRIC_REPRESENTATION_CONTEXT(3)GLOBAL_UNCERTAINTY_ASSIGNED_CONTEXT((#31))GLOBAL_UNIT_ASSIGNED_CONTEXT((#33,#34,#35))REPRESENTATION_CONTEXT('NONE','WORKSPACE'));
#10=STYLED_ITEM('',(#37),#38);
#11=STYLED_ITEM('',(#39),#40);
#12=STYLED_ITEM('',(#41,#42),#43);
#13=STYLED_ITEM('',(#44),#45);
#14=STYLED_ITEM('',(#46,#47),#48);
#15=STYLED_ITEM('',(#49),#50);
#16=STYLED_ITEM('',(#51,#52),#53);
#17=STYLED_ITEM('',(#54,#55),#56);
#18=STYLED_ITEM('',(#57,#58),#59);
#19=STYLED_ITEM('',(#60),#61);
#20=STYLED_ITEM('',(#62),#63);
#21=STYLED_ITEM('',(#64,#65),#66);
#22=STYLED_ITEM('',(#67,#68),#69);
#23=STYLED_ITEM('',(#70,#71),#72);
#24=APPLICATION_CONTEXT(' ');
#25=PRODUCT_CATEGORY('part','NONE');
#26=PRODUCT_RELATED_PRODUCT_CATEGORY('detail',' ',(#73));
#27=PRODUCT_DEFINITION_SHAPE('NONE','NONE',#74);
#28=ADVANCED_BREP_SHAPE_REPRESENTATION('Unnamed[1]',(#66,#75),#6);
#31=UNCERTAINTY_MEASURE_WITH_UNIT(LENGTH_MEASURE(1.0E-006),#33,'','');
#33= (CONVERSION_BASED_UNIT('MILLIMETRE',#78)LENGTH_UNIT()NAMED_UNIT(#81));
#34= (NAMED_UNIT(#83)PLANE_ANGLE_UNIT()SI_UNIT($,.RADIAN.));
#35= (NAMED_UNIT(#83)SOLID_ANGLE_UNIT()SI_UNIT($,.STERADIAN.));
#37=PRESENTATION_STYLE_ASSIGNMENT((#89));
#38=EDGE_CURVE('Unnamed[1]',#90,#90,#91,.T.);
#39=PRESENTATION_STYLE_ASSIGNMENT((#92));
#40=EDGE_CURVE('Unnamed[1]',#93,#93,#94,.T.);
#41=PRESENTATION_STYLE_ASSIGNMENT((#95));
#42=PRESENTATION_STYLE_ASSIGNMENT((#96));
#43=ADVANCED_FACE('Unnamed[1]',(#97,#98),#99,.T.);
#44=PRESENTATION_STYLE_ASSIGNMENT((#100));
#45=EDGE_CURVE('Unnamed[1]',#101,#101,#102,.T.);
#46=PRESENTATION_STYLE_ASSIGNMENT((#103));
#47=PRESENTATION_STYLE_ASSIGNMENT((#104));
#48=ADVANCED_FACE('Unnamed[1]',(#105,#106),#107,.T.);
#49=PRESENTATION_STYLE_ASSIGNMENT((#108));
#50=EDGE_CURVE('Unnamed[1]',#109,#109,#110,.T.);
#51=PRESENTATION_STYLE_ASSIGNMENT((#111));
#52=PRESENTATION_STYLE_ASSIGNMENT((#112));
#53=ADVANCED_FACE('Unnamed[1]',(#113),#114,.T.);
#54=PRESENTATION_STYLE_ASSIGNMENT((#115));
#55=PRESENTATION_STYLE_ASSIGNMENT((#116));
#56=ADVANCED_FACE('Unnamed[1]',(#117),#118,.T.);
#57=PRESENTATION_STYLE_ASSIGNMENT((#119));
#58=PRESENTATION_STYLE_ASSIGNMENT((#120));
#59=ADVANCED_FACE('Unnamed[1]',(#121,#122),#123,.T.);
#60=PRESENTATION_STYLE_ASSIGNMENT((#124));
#61=EDGE_CURVE('Unnamed[1]',#125,#125,#126,.T.);
#62=PRESENTATION_STYLE_ASSIGNMENT((#127));
#63=EDGE_CURVE('Unnamed[1]',#128,#128,#129,.T.);
#64=PRESENTATION_STYLE_ASSIGNMENT((#130));
#65=PRESENTATION_STYLE_ASSIGNMENT((#131));
#66=MANIFOLD_SOLID_BREP('Unnamed[1]',#132);
#67=PRESENTATION_STYLE_ASSIGNMENT((#133));
#68=PRESENTATION_STYLE_ASSIGNMENT((#134));
#69=ADVANCED_FACE('Unnamed[1]',(#135,#136),#137,.T.);
#70=PRESENTATION_STYLE_ASSIGNMENT((#138));
#71=PRESENTATION_STYLE_ASSIGNMENT((#139));
#72=ADVANCED_FACE('Unnamed[1]',(#140,#141),#142,.T.);
#73=PRODUCT('Unnamed[1]','Unnamed[1]','PART-Unnamed[1]-DESC',(#143));
#74=PRODUCT_DEFINITION('NONE','NONE',#144,#2);
#75=AXIS2_PLACEMENT_3D('',#145,#146,#147);
#78=LENGTH_MEASURE_WITH_UNIT(LENGTH_MEASURE(1.0),#148);
#81=DIMENSIONAL_EXPONENTS(1.0,0.0,0.0,0.0,0.0,0.0,0.0);
#83=DIMENSIONAL_EXPONENTS(0.0,0.0,0.0,0.0,0.0,0.0,0.0);
#89=CURVE_STYLE('',#149,POSITIVE_LENGTH_MEASURE(1000.0),#150);
#90=VERTEX_POINT('',#151);
#91=CIRCLE('',#152,21.35);
#92=CURVE_STYLE('',#153,POSITIVE_LENGTH_MEASURE(1000.0),#154);
#93=VERTEX_POINT('',#155);
#94=CIRCLE('',#156,21.35);
#95=SURFACE_STYLE_USAGE(.BOTH.,#157);
#96=CURVE_STYLE('',#158,POSITIVE_LENGTH_MEASURE(1000.0),#159);
#97=FACE_BOUND('',#160,.T.);
#98=FACE_BOUND('',#161,.T.);
#99=CYLINDRICAL_SURFACE('',#162,21.0);
#100=CURVE_STYLE('',#163,POSITIVE_LENGTH_MEASURE(1000.0),#164);
#101=VERTEX_POINT('',#165);
#102=CIRCLE('',#166,21.0);
#103=SURFACE_STYLE_USAGE(.BOTH.,#167);
#104=CURVE_STYLE('',#168,POSITIVE_LENGTH_MEASURE(1000.0),#169);
#105=FACE_BOUND('',#170,.T.);
#106=FACE_OUTER_BOUND('',#171,.T.);
#107=PLANE('',#172);
#108=CURVE_STYLE('',#173,POSITIVE_LENGTH_MEASURE(1000.0),#174);
#109=VERTEX_POINT('',#175);
#110=CIRCLE('',#176,21.0);
#111=SURFACE_STYLE_USAGE(.BOTH.,#177);
#112=CURVE_STYLE('',#178,POSITIVE_LENGTH_MEASURE(1000.0),#179);
#113=FACE_OUTER_BOUND('',#180,.T.);
#114=PLANE('',#181);
#115=SURFACE_STYLE_USAGE(.BOTH.,#182);
#116=CURVE_STYLE('',#183,POSITIVE_LENGTH_MEASURE(1000.0),#184);
#117=FACE_OUTER_BOUND('',#185,.T.);
#118=PLANE('',#186);
#119=SURFACE_STYLE_USAGE(.BOTH.,#187);
#120=CURVE_STYLE('',#188,POSITIVE_LENGTH_MEASURE(1000.0),#189);
#121=FACE_BOUND('',#190,.T.);
#122=FACE_BOUND('',#191,.T.);
#123=CYLINDRICAL_SURFACE('',#192,21.35);
#124=CURVE_STYLE('',#193,POSITIVE_LENGTH_MEASURE(1000.0),#194);
#125=VERTEX_POINT('',#195);
#126=CIRCLE('',#196,17.2230072021484);
#127=CURVE_STYLE('',#197,POSITIVE_LENGTH_MEASURE(1000.0),#198);
#128=VERTEX_POINT('',#199);
#129=CIRCLE('',#200,7.622467141991);
#130=SURFACE_STYLE_USAGE(.BOTH.,#201);
#131=CURVE_STYLE('',#202,POSITIVE_LENGTH_MEASURE(1000.0),#203);
#132=CLOSED_SHELL('',(#56,#59,#69,#43,#48,#72,#53));
#133=SURFACE_STYLE_USAGE(.BOTH.,#204);
#134=CURVE_STYLE('',#205,POSITIVE_LENGTH_MEASURE(1000.0),#206);
#135=FACE_BOUND('',#207,.T.);
#136=FACE_BOUND('',#208,.T.);
#137=CONICAL_SURFACE('',#209,21.175,0.785398163397438);
#138=SURFACE_STYLE_USAGE(.BOTH.,#210);
#139=CURVE_STYLE('',#211,POSITIVE_LENGTH_MEASURE(1000.0),#212);
#140=FACE_BOUND('',#213,.T.);
#141=FACE_BOUND('',#214,.T.);
#142=CONICAL_SURFACE('',#215,12.4227371720697,1.14969723885645);
#143=PRODUCT_CONTEXT('',#24,'mechanical');
#144=PRODUCT_DEFINITION_FORMATION_WITH_SPECIFIED_SOURCE(' ','NONE',#73,.NOT_KNOWN.);
#145=CARTESIAN_POINT('',(0.0,0.0,0.0));
#146=DIRECTION('',(0.0,0.0,1.0));
#147=DIRECTION('',(1.0,0.0,0.0));
#148= (NAMED_UNIT(#81)LENGTH_UNIT()SI_UNIT(.MILLI.,.METRE.));
#149=DRAUGHTING_PRE_DEFINED_CURVE_FONT('continuous');
#150=COLOUR_RGB('',0.0,1.0,0.0);
#151=CARTESIAN_POINT('',(-1.54473664349774E-015,21.35,25.2274638626133));
#152=AXIS2_PLACEMENT_3D('',#217,#218,#219);
#153=DRAUGHTING_PRE_DEFINED_CURVE_FONT('continuous');
#154=COLOUR_RGB('',0.0,1.0,0.0);
#155=CARTESIAN_POINT('',(-1.65939641284466E-015,21.35,27.0999999999999));
#156=AXIS2_PLACEMENT_3D('',#220,#221,#222);
#157=SURFACE_SIDE_STYLE('',(#223));
#158=DRAUGHTING_PRE_DEFINED_CURVE_FONT('continuous');
#159=COLOUR_RGB('',0.0,1.0,0.0);
#160=EDGE_LOOP('',(#224));
#161=EDGE_LOOP('',(#225));
#162=AXIS2_PLACEMENT_3D('',#226,#227,#228);
#163=DRAUGHTING_PRE_DEFINED_CURVE_FONT('continuous');
#164=COLOUR_RGB('',0.0,1.0,0.0);
#165=CARTESIAN_POINT('',(-1.52330532451267E-015,21.0,24.8774638626133));
#166=AXIS2_PLACEMENT_3D('',#229,#230,#231);
#167=SURFACE_SIDE_STYLE('',(#232));
#168=DRAUGHTING_PRE_DEFINED_CURVE_FONT('continuous');
#169=COLOUR_RGB('',0.0,1.0,0.0);
#170=EDGE_LOOP('',(#233));
#171=EDGE_LOOP('',(#234));
#172=AXIS2_PLACEMENT_3D('',#235,#236,#237);
#173=DRAUGHTING_PRE_DEFINED_CURVE_FONT('continuous');
#174=COLOUR_RGB('',0.0,1.0,0.0);
#175=CARTESIAN_POINT('',(-2.46519032881566E-031,21.0,2.66453525910038E-015));
#176=AXIS2_PLACEMENT_3D('',#238,#239,#240);
#177=SURFACE_SIDE_STYLE('',(#241));
#178=DRAUGHTING_PRE_DEFINED_CURVE_FONT('continuous');
#179=COLOUR_RGB('',0.0,1.0,0.0);
#180=EDGE_LOOP('',(#242));
#181=AXIS2_PLACEMENT_3D('',#243,#244,#245);
#182=SURFACE_SIDE_STYLE('',(#246));
#183=DRAUGHTING_PRE_DEFINED_CURVE_FONT('continuous');
#184=COLOUR_RGB('',0.0,1.0,0.0);
#185=EDGE_LOOP('',(#247));
#186=AXIS2_PLACEMENT_3D('',#248,#249,#250);
#187=SURFACE_SIDE_STYLE('',(#251));
#188=DRAUGHTING_PRE_DEFINED_CURVE_FONT('continuous');
#189=COLOUR_RGB('',0.0,1.0,0.0);
#190=EDGE_LOOP('',(#252));
#191=EDGE_LOOP('',(#253));
#192=AXIS2_PLACEMENT_3D('',#254,#255,#256);
#193=DRAUGHTING_PRE_DEFINED_CURVE_FONT('continuous');
#194=COLOUR_RGB('',0.0,1.0,0.0);
#195=CARTESIAN_POINT('',(-1.97215226305253E-031,17.2230072021484,1.77635683940025E-015));
#196=AXIS2_PLACEMENT_3D('',#257,#258,#259);
#197=DRAUGHTING_PRE_DEFINED_CURVE_FONT('continuous');
#198=COLOUR_RGB('',0.0,1.0,0.0);
#199=CARTESIAN_POINT('',(2.63299061816682E-016,7.622467141991,-4.30000000000001));
#200=AXIS2_PLACEMENT_3D('',#260,#261,#262);
#201=SURFACE_SIDE_STYLE('',(#263));
#202=DRAUGHTING_PRE_DEFINED_CURVE_FONT('continuous');
#203=COLOUR_RGB('',0.0,1.0,0.0);
#204=SURFACE_SIDE_STYLE('',(#264));
#205=DRAUGHTING_PRE_DEFINED_CURVE_FONT('continuous');
#206=COLOUR_RGB('',0.0,1.0,0.0);
#207=EDGE_LOOP('',(#265));
#208=EDGE_LOOP('',(#266));
#209=AXIS2_PLACEMENT_3D('',#267,#268,#269);
#210=SURFACE_SIDE_STYLE('',(#270));
#211=DRAUGHTING_PRE_DEFINED_CURVE_FONT('continuous');
#212=COLOUR_RGB('',0.0,1.0,0.0);
#213=EDGE_LOOP('',(#271));
#214=EDGE_LOOP('',(#272));
#215=AXIS2_PLACEMENT_3D('',#273,#274,#275);
#217=CARTESIAN_POINT('',(-1.54473664349774E-015,-3.08947328699549E-015,25.2274638626133));
#218=DIRECTION('',(6.12323399573677E-017,1.22464679914735E-016,-1.0));
#219=DIRECTION('',(-1.23259516440783E-032,1.0,1.22464679914735E-016));
#220=CARTESIAN_POINT('',(-1.65939641284466E-015,-3.31879282568932E-015,27.0999999999999));
#221=DIRECTION('',(6.12323399573677E-017,1.22464679914735E-016,-1.0));
#222=DIRECTION('',(-1.23259516440783E-032,1.0,1.22464679914735E-016));
#223=SURFACE_STYLE_FILL_AREA(#276);
#224=ORIENTED_EDGE('',*,*,#50,.F.);
#225=ORIENTED_EDGE('',*,*,#45,.T.);
#226=CARTESIAN_POINT('',(-7.61652662256333E-016,-1.52330532451267E-015,12.4387319313066));
#227=DIRECTION('',(6.12323399573677E-017,1.22464679914735E-016,-1.0));
#228=DIRECTION('',(-1.23259516440783E-032,1.0,1.22464679914735E-016));
#229=CARTESIAN_POINT('',(-1.52330532451267E-015,-3.04661064902533E-015,24.8774638626133));
#230=DIRECTION('',(6.12323399573677E-017,1.22464679914735E-016,-1.0));
#231=DIRECTION('',(-1.23259516440783E-032,1.0,1.22464679914735E-016));
#232=SURFACE_STYLE_FILL_AREA(#277);
#233=ORIENTED_EDGE('',*,*,#61,.F.);
#234=ORIENTED_EDGE('',*,*,#50,.T.);
#235=CARTESIAN_POINT('',(-2.46519032881566E-031,19.1115036010742,2.66453525910038E-015));
#236=DIRECTION('',(6.12323399573677E-017,1.22464679914735E-016,-1.0));
#237=DIRECTION('',(-1.23259516440783E-032,1.0,1.22464679914735E-016));
#238=CARTESIAN_POINT('',(0.0,0.0,0.0));
#239=DIRECTION('',(6.12323399573677E-017,1.22464679914735E-016,-1.0));
#240=DIRECTION('',(-1.23259516440783E-032,1.0,1.22464679914735E-016));
#241=SURFACE_STYLE_FILL_AREA(#278);
#242=ORIENTED_EDGE('',*,*,#63,.T.);
#243=CARTESIAN_POINT('',(2.63299061816682E-016,3.8112335709955,-4.30000000000001));
#244=DIRECTION('',(6.12323399573677E-017,1.22464679914735E-016,-1.0));
#245=DIRECTION('',(-1.23259516440783E-032,1.0,1.22464679914735E-016));
#246=SURFACE_STYLE_FILL_AREA(#279);
#247=ORIENTED_EDGE('',*,*,#40,.F.);
#248=CARTESIAN_POINT('',(-1.65939641284466E-015,10.675,27.0999999999999));
#249=DIRECTION('',(-6.12323399573677E-017,-1.22464679914735E-016,1.0));
#250=DIRECTION('',(1.23259516440783E-032,-1.0,-1.22464679914735E-016));
#251=SURFACE_STYLE_FILL_AREA(#280);
#252=ORIENTED_EDGE('',*,*,#38,.F.);
#253=ORIENTED_EDGE('',*,*,#40,.T.);
#254=CARTESIAN_POINT('',(-1.6020665281712E-015,-3.2041330563424E-015,26.1637319313066));
#255=DIRECTION('',(6.12323399573677E-017,1.22464679914735E-016,-1.0));
#256=DIRECTION('',(-1.23259516440783E-032,1.0,1.22464679914735E-016));
#257=CARTESIAN_POINT('',(0.0,0.0,0.0));
#258=DIRECTION('',(6.12323399573677E-017,1.22464679914735E-016,-1.0));
#259=DIRECTION('',(-1.23259516440783E-032,1.0,1.22464679914735E-016));
#260=CARTESIAN_POINT('',(2.63299061816682E-016,5.26598123633363E-016,-4.30000000000001));
#261=DIRECTION('',(6.12323399573677E-017,1.22464679914735E-016,-1.0));
#262=DIRECTION('',(-1.23259516440783E-032,1.0,1.22464679914735E-016));
#263=SURFACE_STYLE_FILL_AREA(#281);
#264=SURFACE_STYLE_FILL_AREA(#282);
#265=ORIENTED_EDGE('',*,*,#45,.F.);
#266=ORIENTED_EDGE('',*,*,#38,.T.);
#267=CARTESIAN_POINT('',(-1.53402098400521E-015,-3.06804196801041E-015,25.0524638626133));
#268=DIRECTION('',(-6.12323399573677E-017,-1.22464679914735E-016,1.0));
#269=DIRECTION('',(-1.23259516440783E-032,1.0,1.22464679914735E-016));
#270=SURFACE_STYLE_FILL_AREA(#283);
#271=ORIENTED_EDGE('',*,*,#63,.F.);
#272=ORIENTED_EDGE('',*,*,#61,.T.);
#273=CARTESIAN_POINT('',(1.31649530908341E-016,2.63299061816682E-016,-2.15000000000001));
#274=DIRECTION('',(-6.12323399573677E-017,-1.22464679914735E-016,1.0));
#275=DIRECTION('',(-1.23259516440783E-032,1.0,1.22464679914735E-016));
#276=FILL_AREA_STYLE('',(#284));
#277=FILL_AREA_STYLE('',(#285));
#278=FILL_AREA_STYLE('',(#286));
#279=FILL_AREA_STYLE('',(#287));
#280=FILL_AREA_STYLE('',(#288));
#281=FILL_AREA_STYLE('',(#289));
#282=FILL_AREA_STYLE('',(#290));
#283=FILL_AREA_STYLE('',(#291));
#284=FILL_AREA_STYLE_COLOUR('',#292);
#285=FILL_AREA_STYLE_COLOUR('',#293);
#286=FILL_AREA_STYLE_COLOUR('',#294);
#287=FILL_AREA_STYLE_COLOUR('',#295);
#288=FILL_AREA_STYLE_COLOUR('',#296);
#289=FILL_AREA_STYLE_COLOUR('',#297);
#290=FILL_AREA_STYLE_COLOUR('',#298);
#291=FILL_AREA_STYLE_COLOUR('',#299);
#292=COLOUR_RGB('',0.0,1.0,0.0);
#293=COLOUR_RGB('',0.0,1.0,0.0);
#294=COLOUR_RGB('',0.0,1.0,0.0);
#295=COLOUR_RGB('',0.0,1.0,0.0);
#296=COLOUR_RGB('',0.0,1.0,0.0);
#297=COLOUR_RGB('',0.0,1.0,0.0);
#298=COLOUR_RGB('',0.0,1.0,0.0);
#299=COLOUR_RGB('',0.0,1.0,0.0);
ENDSEC;
END-ISO-10303-21;
