ISO-10303-21;
HEADER;
FILE_DESCRIPTION((''),'1');
FILE_NAME('T:/02_3D_Field-HP\X2\FF71FF6FFF8CFF9F5916\X0\2013/02_Step_Field-HP\X2\FF71FF6FFF8CFF9F5916\X0\2013/66_\X2\FF71FF78FF7EFF7BFF98FF70\X0\/MPS13-11115_1112.stp','2017-02-20T06:27:27',(''),(''),'Spatial Interop R21 SP3','Kubotek KeyCreator 2011 V10.0.2 (22737)',' ');
FILE_SCHEMA(('automotive_design'));
ENDSEC;
DATA;
#1=MECHANICAL_DESIGN_GEOMETRIC_PRESENTATION_REPRESENTATION(' ',(#10,#11,#12,#13,#14,#15,#16,#17,#18,#19,#20,#21,#22,#23),#6);
#2=PRODUCT_DEFINITION_CONTEXT('',#24,'design');
#3=APPLICATION_PROTOCOL_DEFINITION('INTERNATIONAL STANDARD','automotive_design',1994,#24);
#4=PRODUCT_CATEGORY_RELATIONSHIP('NONE','NONE',#25,#26);
#5=SHAPE_DEFINITION_REPRESENTATION(#27,#28);
#6= (GEOMETRIC_REPRESENTATION_CONTEXT(3)GLOBAL_UNCERTAINTY_ASSIGNED_CONTEXT((#31))GLOBAL_UNIT_ASSIGNED_CONTEXT((#33,#34,#35))REPRESENTATION_CONTEXT('NONE','WORKSPACE'));
#10=STYLED_ITEM('',(#37),#38);
#11=STYLED_ITEM('',(#39,#40),#41);
#12=STYLED_ITEM('',(#42),#43);
#13=STYLED_ITEM('',(#44),#45);
#14=STYLED_ITEM('',(#46,#47),#48);
#15=STYLED_ITEM('',(#49,#50),#51);
#16=STYLED_ITEM('',(#52,#53),#54);
#17=STYLED_ITEM('',(#55),#56);
#18=STYLED_ITEM('',(#57,#58),#59);
#19=STYLED_ITEM('',(#60,#61),#62);
#20=STYLED_ITEM('',(#63),#64);
#21=STYLED_ITEM('',(#65),#66);
#22=STYLED_ITEM('',(#67,#68),#69);
#23=STYLED_ITEM('',(#70,#71),#72);
#24=APPLICATION_CONTEXT(' ');
#25=PRODUCT_CATEGORY('part','NONE');
#26=PRODUCT_RELATED_PRODUCT_CATEGORY('detail',' ',(#73));
#27=PRODUCT_DEFINITION_SHAPE('NONE','NONE',#74);
#28=ADVANCED_BREP_SHAPE_REPRESENTATION('Unnamed[1]',(#54,#75),#6);
#31=UNCERTAINTY_MEASURE_WITH_UNIT(LENGTH_MEASURE(1.0E-006),#33,'','');
#33= (CONVERSION_BASED_UNIT('MILLIMETRE',#78)LENGTH_UNIT()NAMED_UNIT(#81));
#34= (NAMED_UNIT(#83)PLANE_ANGLE_UNIT()SI_UNIT($,.RADIAN.));
#35= (NAMED_UNIT(#83)SOLID_ANGLE_UNIT()SI_UNIT($,.STERADIAN.));
#37=PRESENTATION_STYLE_ASSIGNMENT((#89));
#38=EDGE_CURVE('Unnamed[1]',#90,#90,#91,.T.);
#39=PRESENTATION_STYLE_ASSIGNMENT((#92));
#40=PRESENTATION_STYLE_ASSIGNMENT((#93));
#41=ADVANCED_FACE('Unnamed[1]',(#94,#95),#96,.T.);
#42=PRESENTATION_STYLE_ASSIGNMENT((#97));
#43=EDGE_CURVE('Unnamed[1]',#98,#98,#99,.T.);
#44=PRESENTATION_STYLE_ASSIGNMENT((#100));
#45=EDGE_CURVE('Unnamed[1]',#101,#101,#102,.T.);
#46=PRESENTATION_STYLE_ASSIGNMENT((#103));
#47=PRESENTATION_STYLE_ASSIGNMENT((#104));
#48=ADVANCED_FACE('Unnamed[1]',(#105,#106),#107,.T.);
#49=PRESENTATION_STYLE_ASSIGNMENT((#108));
#50=PRESENTATION_STYLE_ASSIGNMENT((#109));
#51=ADVANCED_FACE('Unnamed[1]',(#110,#111),#112,.T.);
#52=PRESENTATION_STYLE_ASSIGNMENT((#113));
#53=PRESENTATION_STYLE_ASSIGNMENT((#114));
#54=MANIFOLD_SOLID_BREP('Unnamed[1]',#115);
#55=PRESENTATION_STYLE_ASSIGNMENT((#116));
#56=EDGE_CURVE('Unnamed[1]',#117,#117,#118,.T.);
#57=PRESENTATION_STYLE_ASSIGNMENT((#119));
#58=PRESENTATION_STYLE_ASSIGNMENT((#120));
#59=ADVANCED_FACE('Unnamed[1]',(#121,#122),#123,.T.);
#60=PRESENTATION_STYLE_ASSIGNMENT((#124));
#61=PRESENTATION_STYLE_ASSIGNMENT((#125));
#62=ADVANCED_FACE('Unnamed[1]',(#126,#127),#128,.T.);
#63=PRESENTATION_STYLE_ASSIGNMENT((#129));
#64=EDGE_CURVE('Unnamed[1]',#130,#130,#131,.T.);
#65=PRESENTATION_STYLE_ASSIGNMENT((#132));
#66=EDGE_CURVE('Unnamed[1]',#133,#133,#134,.T.);
#67=PRESENTATION_STYLE_ASSIGNMENT((#135));
#68=PRESENTATION_STYLE_ASSIGNMENT((#136));
#69=ADVANCED_FACE('Unnamed[1]',(#137),#138,.T.);
#70=PRESENTATION_STYLE_ASSIGNMENT((#139));
#71=PRESENTATION_STYLE_ASSIGNMENT((#140));
#72=ADVANCED_FACE('Unnamed[1]',(#141),#142,.T.);
#73=PRODUCT('Unnamed[1]','Unnamed[1]','PART-Unnamed[1]-DESC',(#143));
#74=PRODUCT_DEFINITION('NONE','NONE',#144,#2);
#75=AXIS2_PLACEMENT_3D('',#145,#146,#147);
#78=LENGTH_MEASURE_WITH_UNIT(LENGTH_MEASURE(1.0),#148);
#81=DIMENSIONAL_EXPONENTS(1.0,0.0,0.0,0.0,0.0,0.0,0.0);
#83=DIMENSIONAL_EXPONENTS(0.0,0.0,0.0,0.0,0.0,0.0,0.0);
#89=CURVE_STYLE('',#149,POSITIVE_LENGTH_MEASURE(1000.0),#150);
#90=VERTEX_POINT('',#151);
#91=CIRCLE('',#152,10.6254148751585);
#92=SURFACE_STYLE_USAGE(.BOTH.,#153);
#93=CURVE_STYLE('',#154,POSITIVE_LENGTH_MEASURE(1000.0),#155);
#94=FACE_BOUND('',#156,.T.);
#95=FACE_BOUND('',#157,.T.);
#96=CONICAL_SURFACE('',#158,12.4939559117004,0.727140720611573);
#97=CURVE_STYLE('',#159,POSITIVE_LENGTH_MEASURE(1000.0),#160);
#98=VERTEX_POINT('',#161);
#99=CIRCLE('',#162,14.3624969482422);
#100=CURVE_STYLE('',#163,POSITIVE_LENGTH_MEASURE(1000.0),#164);
#101=VERTEX_POINT('',#165);
#102=CIRCLE('',#166,17.65);
#103=SURFACE_STYLE_USAGE(.BOTH.,#167);
#104=CURVE_STYLE('',#168,POSITIVE_LENGTH_MEASURE(1000.0),#169);
#105=FACE_BOUND('',#170,.T.);
#106=FACE_BOUND('',#171,.T.);
#107=CYLINDRICAL_SURFACE('',#172,17.65);
#108=SURFACE_STYLE_USAGE(.BOTH.,#173);
#109=CURVE_STYLE('',#174,POSITIVE_LENGTH_MEASURE(1000.0),#175);
#110=FACE_BOUND('',#176,.T.);
#111=FACE_BOUND('',#177,.T.);
#112=CYLINDRICAL_SURFACE('',#178,17.5);
#113=SURFACE_STYLE_USAGE(.BOTH.,#179);
#114=CURVE_STYLE('',#180,POSITIVE_LENGTH_MEASURE(1000.0),#181);
#115=CLOSED_SHELL('',(#72,#48,#62,#51,#59,#41,#69));
#116=CURVE_STYLE('',#182,POSITIVE_LENGTH_MEASURE(1000.0),#183);
#117=VERTEX_POINT('',#184);
#118=CIRCLE('',#185,17.5);
#119=SURFACE_STYLE_USAGE(.BOTH.,#186);
#120=CURVE_STYLE('',#187,POSITIVE_LENGTH_MEASURE(1000.0),#188);
#121=FACE_BOUND('',#189,.T.);
#122=FACE_OUTER_BOUND('',#190,.T.);
#123=PLANE('',#191);
#124=SURFACE_STYLE_USAGE(.BOTH.,#192);
#125=CURVE_STYLE('',#193,POSITIVE_LENGTH_MEASURE(1000.0),#194);
#126=FACE_BOUND('',#195,.T.);
#127=FACE_BOUND('',#196,.T.);
#128=CONICAL_SURFACE('',#197,17.575,0.785398163397437);
#129=CURVE_STYLE('',#198,POSITIVE_LENGTH_MEASURE(1000.0),#199);
#130=VERTEX_POINT('',#200);
#131=CIRCLE('',#201,17.65);
#132=CURVE_STYLE('',#202,POSITIVE_LENGTH_MEASURE(1000.0),#203);
#133=VERTEX_POINT('',#204);
#134=CIRCLE('',#205,17.5);
#135=SURFACE_STYLE_USAGE(.BOTH.,#206);
#136=CURVE_STYLE('',#207,POSITIVE_LENGTH_MEASURE(1000.0),#208);
#137=FACE_OUTER_BOUND('',#209,.T.);
#138=PLANE('',#210);
#139=SURFACE_STYLE_USAGE(.BOTH.,#211);
#140=CURVE_STYLE('',#212,POSITIVE_LENGTH_MEASURE(1000.0),#213);
#141=FACE_OUTER_BOUND('',#214,.T.);
#142=PLANE('',#215);
#143=PRODUCT_CONTEXT('',#24,'mechanical');
#144=PRODUCT_DEFINITION_FORMATION_WITH_SPECIFIED_SOURCE(' ','NONE',#73,.NOT_KNOWN.);
#145=CARTESIAN_POINT('',(0.0,0.0,0.0));
#146=DIRECTION('',(0.0,0.0,1.0));
#147=DIRECTION('',(1.0,0.0,0.0));
#148= (NAMED_UNIT(#81)LENGTH_UNIT()SI_UNIT(.MILLI.,.METRE.));
#149=DRAUGHTING_PRE_DEFINED_CURVE_FONT('continuous');
#150=COLOUR_RGB('',0.0,1.0,0.0);
#151=CARTESIAN_POINT('',(2.57175827820943E-016,10.6254148751585,-4.19999999999998));
#152=AXIS2_PLACEMENT_3D('',#217,#218,#219);
#153=SURFACE_SIDE_STYLE('',(#220));
#154=DRAUGHTING_PRE_DEFINED_CURVE_FONT('continuous');
#155=COLOUR_RGB('',0.0,1.0,0.0);
#156=EDGE_LOOP('',(#221));
#157=EDGE_LOOP('',(#222));
#158=AXIS2_PLACEMENT_3D('',#223,#224,#225);
#159=DRAUGHTING_PRE_DEFINED_CURVE_FONT('continuous');
#160=COLOUR_RGB('',0.0,1.0,0.0);
#161=CARTESIAN_POINT('',(-1.97215226305253E-031,14.3624969482422,1.77635683940025E-015));
#162=AXIS2_PLACEMENT_3D('',#226,#227,#228);
#163=DRAUGHTING_PRE_DEFINED_CURVE_FONT('continuous');
#164=COLOUR_RGB('',0.0,1.0,0.0);
#165=CARTESIAN_POINT('',(-1.51636980929673E-015,17.65,24.7641983035841));
#166=AXIS2_PLACEMENT_3D('',#229,#230,#231);
#167=SURFACE_SIDE_STYLE('',(#232));
#168=DRAUGHTING_PRE_DEFINED_CURVE_FONT('continuous');
#169=COLOUR_RGB('',0.0,1.0,0.0);
#170=EDGE_LOOP('',(#233));
#171=EDGE_LOOP('',(#234));
#172=AXIS2_PLACEMENT_3D('',#235,#236,#237);
#173=SURFACE_SIDE_STYLE('',(#238));
#174=DRAUGHTING_PRE_DEFINED_CURVE_FONT('continuous');
#175=COLOUR_RGB('',0.0,1.0,0.0);
#176=EDGE_LOOP('',(#239));
#177=EDGE_LOOP('',(#240));
#178=AXIS2_PLACEMENT_3D('',#241,#242,#243);
#179=SURFACE_SIDE_STYLE('',(#244));
#180=DRAUGHTING_PRE_DEFINED_CURVE_FONT('continuous');
#181=COLOUR_RGB('',0.0,1.0,0.0);
#182=DRAUGHTING_PRE_DEFINED_CURVE_FONT('continuous');
#183=COLOUR_RGB('',0.0,1.0,0.0);
#184=CARTESIAN_POINT('',(-1.97215226305253E-031,17.5,1.77635683940025E-015));
#185=AXIS2_PLACEMENT_3D('',#245,#246,#247);
#186=SURFACE_SIDE_STYLE('',(#248));
#187=DRAUGHTING_PRE_DEFINED_CURVE_FONT('continuous');
#188=COLOUR_RGB('',0.0,1.0,0.0);
#189=EDGE_LOOP('',(#249));
#190=EDGE_LOOP('',(#250));
#191=AXIS2_PLACEMENT_3D('',#251,#252,#253);
#192=SURFACE_SIDE_STYLE('',(#254));
#193=DRAUGHTING_PRE_DEFINED_CURVE_FONT('continuous');
#194=COLOUR_RGB('',0.0,1.0,0.0);
#195=EDGE_LOOP('',(#255));
#196=EDGE_LOOP('',(#256));
#197=AXIS2_PLACEMENT_3D('',#257,#258,#259);
#198=DRAUGHTING_PRE_DEFINED_CURVE_FONT('continuous');
#199=COLOUR_RGB('',0.0,1.0,0.0);
#200=CARTESIAN_POINT('',(-1.63490254253036E-015,17.65,26.6999847412109));
#201=AXIS2_PLACEMENT_3D('',#260,#261,#262);
#202=DRAUGHTING_PRE_DEFINED_CURVE_FONT('continuous');
#203=COLOUR_RGB('',0.0,1.0,0.0);
#204=CARTESIAN_POINT('',(-1.50718495830312E-015,17.5,24.6141983035841));
#205=AXIS2_PLACEMENT_3D('',#263,#264,#265);
#206=SURFACE_SIDE_STYLE('',(#266));
#207=DRAUGHTING_PRE_DEFINED_CURVE_FONT('continuous');
#208=COLOUR_RGB('',0.0,1.0,0.0);
#209=EDGE_LOOP('',(#267));
#210=AXIS2_PLACEMENT_3D('',#268,#269,#270);
#211=SURFACE_SIDE_STYLE('',(#271));
#212=DRAUGHTING_PRE_DEFINED_CURVE_FONT('continuous');
#213=COLOUR_RGB('',0.0,1.0,0.0);
#214=EDGE_LOOP('',(#272));
#215=AXIS2_PLACEMENT_3D('',#273,#274,#275);
#217=CARTESIAN_POINT('',(2.57175827820943E-016,5.14351655641886E-016,-4.19999999999999));
#218=DIRECTION('',(6.12323399573677E-017,1.22464679914735E-016,-1.0));
#219=DIRECTION('',(-1.23259516440783E-032,1.0,1.22464679914735E-016));
#220=SURFACE_STYLE_FILL_AREA(#276);
#221=ORIENTED_EDGE('',*,*,#38,.F.);
#222=ORIENTED_EDGE('',*,*,#43,.T.);
#223=CARTESIAN_POINT('',(1.28587913910472E-016,2.57175827820943E-016,-2.09999999999999));
#224=DIRECTION('',(-6.12323399573677E-017,-1.22464679914735E-016,1.0));
#225=DIRECTION('',(-1.23259516440783E-032,1.0,1.22464679914735E-016));
#226=CARTESIAN_POINT('',(0.0,0.0,0.0));
#227=DIRECTION('',(6.12323399573677E-017,1.22464679914735E-016,-1.0));
#228=DIRECTION('',(-1.23259516440783E-032,1.0,1.22464679914735E-016));
#229=CARTESIAN_POINT('',(-1.51636980929673E-015,-3.03273961859346E-015,24.7641983035841));
#230=DIRECTION('',(6.12323399573677E-017,1.22464679914735E-016,-1.0));
#231=DIRECTION('',(-1.23259516440783E-032,1.0,1.22464679914735E-016));
#232=SURFACE_STYLE_FILL_AREA(#277);
#233=ORIENTED_EDGE('',*,*,#45,.F.);
#234=ORIENTED_EDGE('',*,*,#64,.T.);
#235=CARTESIAN_POINT('',(-1.57563617591354E-015,-3.15127235182709E-015,25.7320915223975));
#236=DIRECTION('',(6.12323399573677E-017,1.22464679914735E-016,-1.0));
#237=DIRECTION('',(-1.23259516440783E-032,1.0,1.22464679914735E-016));
#238=SURFACE_STYLE_FILL_AREA(#278);
#239=ORIENTED_EDGE('',*,*,#56,.F.);
#240=ORIENTED_EDGE('',*,*,#66,.T.);
#241=CARTESIAN_POINT('',(-7.53592479151562E-016,-1.50718495830312E-015,12.3070991517921));
#242=DIRECTION('',(6.12323399573677E-017,1.22464679914735E-016,-1.0));
#243=DIRECTION('',(-1.23259516440783E-032,1.0,1.22464679914735E-016));
#244=SURFACE_STYLE_FILL_AREA(#279);
#245=CARTESIAN_POINT('',(0.0,0.0,0.0));
#246=DIRECTION('',(6.12323399573677E-017,1.22464679914735E-016,-1.0));
#247=DIRECTION('',(-1.23259516440783E-032,1.0,1.22464679914735E-016));
#248=SURFACE_STYLE_FILL_AREA(#280);
#249=ORIENTED_EDGE('',*,*,#43,.F.);
#250=ORIENTED_EDGE('',*,*,#56,.T.);
#251=CARTESIAN_POINT('',(-1.97215226305253E-031,15.9312484741211,1.77635683940025E-015));
#252=DIRECTION('',(6.12323399573677E-017,1.22464679914735E-016,-1.0));
#253=DIRECTION('',(-1.23259516440783E-032,1.0,1.22464679914735E-016));
#254=SURFACE_STYLE_FILL_AREA(#281);
#255=ORIENTED_EDGE('',*,*,#66,.F.);
#256=ORIENTED_EDGE('',*,*,#45,.T.);
#257=CARTESIAN_POINT('',(-1.51177738379993E-015,-3.02355476759985E-015,24.6891983035841));
#258=DIRECTION('',(-6.12323399573677E-017,-1.22464679914735E-016,1.0));
#259=DIRECTION('',(-1.23259516440783E-032,1.0,1.22464679914735E-016));
#260=CARTESIAN_POINT('',(-1.63490254253036E-015,-3.26980508506071E-015,26.6999847412109));
#261=DIRECTION('',(6.12323399573677E-017,1.22464679914735E-016,-1.0));
#262=DIRECTION('',(-1.23259516440783E-032,1.0,1.22464679914735E-016));
#263=CARTESIAN_POINT('',(-1.50718495830312E-015,-3.01436991660625E-015,24.6141983035841));
#264=DIRECTION('',(6.12323399573677E-017,1.22464679914735E-016,-1.0));
#265=DIRECTION('',(-1.23259516440783E-032,1.0,1.22464679914735E-016));
#266=SURFACE_STYLE_FILL_AREA(#282);
#267=ORIENTED_EDGE('',*,*,#38,.T.);
#268=CARTESIAN_POINT('',(2.57175827820943E-016,5.31270743757927,-4.19999999999998));
#269=DIRECTION('',(6.12323399573677E-017,1.22464679914735E-016,-1.0));
#270=DIRECTION('',(-1.23259516440783E-032,1.0,1.22464679914735E-016));
#271=SURFACE_STYLE_FILL_AREA(#283);
#272=ORIENTED_EDGE('',*,*,#64,.F.);
#273=CARTESIAN_POINT('',(-1.63490254253036E-015,8.825,26.6999847412109));
#274=DIRECTION('',(-6.12323399573677E-017,-1.22464679914735E-016,1.0));
#275=DIRECTION('',(1.23259516440783E-032,-1.0,-1.22464679914735E-016));
#276=FILL_AREA_STYLE('',(#284));
#277=FILL_AREA_STYLE('',(#285));
#278=FILL_AREA_STYLE('',(#286));
#279=FILL_AREA_STYLE('',(#287));
#280=FILL_AREA_STYLE('',(#288));
#281=FILL_AREA_STYLE('',(#289));
#282=FILL_AREA_STYLE('',(#290));
#283=FILL_AREA_STYLE('',(#291));
#284=FILL_AREA_STYLE_COLOUR('',#292);
#285=FILL_AREA_STYLE_COLOUR('',#293);
#286=FILL_AREA_STYLE_COLOUR('',#294);
#287=FILL_AREA_STYLE_COLOUR('',#295);
#288=FILL_AREA_STYLE_COLOUR('',#296);
#289=FILL_AREA_STYLE_COLOUR('',#297);
#290=FILL_AREA_STYLE_COLOUR('',#298);
#291=FILL_AREA_STYLE_COLOUR('',#299);
#292=COLOUR_RGB('',0.0,1.0,0.0);
#293=COLOUR_RGB('',0.0,1.0,0.0);
#294=COLOUR_RGB('',0.0,1.0,0.0);
#295=COLOUR_RGB('',0.0,1.0,0.0);
#296=COLOUR_RGB('',0.0,1.0,0.0);
#297=COLOUR_RGB('',0.0,1.0,0.0);
#298=COLOUR_RGB('',0.0,1.0,0.0);
#299=COLOUR_RGB('',0.0,1.0,0.0);
ENDSEC;
END-ISO-10303-21;
