ISO-10303-21;
HEADER;
FILE_DESCRIPTION((''),'1');
FILE_NAME('T:/02_3D_Field-HP\X2\FF71FF6FFF8CFF9F5916\X0\2013/02_Step_Field-HP\X2\FF71FF6FFF8CFF9F5916\X0\2013/66_\X2\FF71FF78FF7EFF7BFF98FF70\X0\/MPS13-10105_1011.stp','2017-02-20T06:24:58',(''),(''),'Spatial Interop R21 SP3','Kubotek KeyCreator 2011 V10.0.2 (22737)',' ');
FILE_SCHEMA(('automotive_design'));
ENDSEC;
DATA;
#1=MECHANICAL_DESIGN_GEOMETRIC_PRESENTATION_REPRESENTATION(' ',(#10,#11,#12,#13,#14,#15,#16,#17,#18,#19,#20,#21,#22,#23),#6);
#2=PRODUCT_DEFINITION_CONTEXT('',#24,'design');
#3=APPLICATION_PROTOCOL_DEFINITION('INTERNATIONAL STANDARD','automotive_design',1994,#24);
#4=PRODUCT_CATEGORY_RELATIONSHIP('NONE','NONE',#25,#26);
#5=SHAPE_DEFINITION_REPRESENTATION(#27,#28);
#6= (GEOMETRIC_REPRESENTATION_CONTEXT(3)GLOBAL_UNCERTAINTY_ASSIGNED_CONTEXT((#31))GLOBAL_UNIT_ASSIGNED_CONTEXT((#33,#34,#35))REPRESENTATION_CONTEXT('NONE','WORKSPACE'));
#10=STYLED_ITEM('',(#37),#38);
#11=STYLED_ITEM('',(#39,#40),#41);
#12=STYLED_ITEM('',(#42,#43),#44);
#13=STYLED_ITEM('',(#45,#46),#47);
#14=STYLED_ITEM('',(#48),#49);
#15=STYLED_ITEM('',(#50,#51),#52);
#16=STYLED_ITEM('',(#53,#54),#55);
#17=STYLED_ITEM('',(#56),#57);
#18=STYLED_ITEM('',(#58),#59);
#19=STYLED_ITEM('',(#60,#61),#62);
#20=STYLED_ITEM('',(#63),#64);
#21=STYLED_ITEM('',(#65,#66),#67);
#22=STYLED_ITEM('',(#68),#69);
#23=STYLED_ITEM('',(#70,#71),#72);
#24=APPLICATION_CONTEXT(' ');
#25=PRODUCT_CATEGORY('part','NONE');
#26=PRODUCT_RELATED_PRODUCT_CATEGORY('detail',' ',(#73));
#27=PRODUCT_DEFINITION_SHAPE('NONE','NONE',#74);
#28=ADVANCED_BREP_SHAPE_REPRESENTATION('Unnamed[1]',(#72,#75),#6);
#31=UNCERTAINTY_MEASURE_WITH_UNIT(LENGTH_MEASURE(1.0E-006),#33,'','');
#33= (CONVERSION_BASED_UNIT('MILLIMETRE',#78)LENGTH_UNIT()NAMED_UNIT(#81));
#34= (NAMED_UNIT(#83)PLANE_ANGLE_UNIT()SI_UNIT($,.RADIAN.));
#35= (NAMED_UNIT(#83)SOLID_ANGLE_UNIT()SI_UNIT($,.STERADIAN.));
#37=PRESENTATION_STYLE_ASSIGNMENT((#89));
#38=EDGE_CURVE('Unnamed[1]',#90,#90,#91,.T.);
#39=PRESENTATION_STYLE_ASSIGNMENT((#92));
#40=PRESENTATION_STYLE_ASSIGNMENT((#93));
#41=ADVANCED_FACE('Unnamed[1]',(#94,#95),#96,.T.);
#42=PRESENTATION_STYLE_ASSIGNMENT((#97));
#43=PRESENTATION_STYLE_ASSIGNMENT((#98));
#44=ADVANCED_FACE('Unnamed[1]',(#99,#100),#101,.T.);
#45=PRESENTATION_STYLE_ASSIGNMENT((#102));
#46=PRESENTATION_STYLE_ASSIGNMENT((#103));
#47=ADVANCED_FACE('Unnamed[1]',(#104),#105,.T.);
#48=PRESENTATION_STYLE_ASSIGNMENT((#106));
#49=EDGE_CURVE('Unnamed[1]',#107,#107,#108,.T.);
#50=PRESENTATION_STYLE_ASSIGNMENT((#109));
#51=PRESENTATION_STYLE_ASSIGNMENT((#110));
#52=ADVANCED_FACE('Unnamed[1]',(#111,#112),#113,.T.);
#53=PRESENTATION_STYLE_ASSIGNMENT((#114));
#54=PRESENTATION_STYLE_ASSIGNMENT((#115));
#55=ADVANCED_FACE('Unnamed[1]',(#116),#117,.T.);
#56=PRESENTATION_STYLE_ASSIGNMENT((#118));
#57=EDGE_CURVE('Unnamed[1]',#119,#119,#120,.T.);
#58=PRESENTATION_STYLE_ASSIGNMENT((#121));
#59=EDGE_CURVE('Unnamed[1]',#122,#122,#123,.T.);
#60=PRESENTATION_STYLE_ASSIGNMENT((#124));
#61=PRESENTATION_STYLE_ASSIGNMENT((#125));
#62=ADVANCED_FACE('Unnamed[1]',(#126,#127),#128,.T.);
#63=PRESENTATION_STYLE_ASSIGNMENT((#129));
#64=EDGE_CURVE('Unnamed[1]',#130,#130,#131,.T.);
#65=PRESENTATION_STYLE_ASSIGNMENT((#132));
#66=PRESENTATION_STYLE_ASSIGNMENT((#133));
#67=ADVANCED_FACE('Unnamed[1]',(#134,#135),#136,.T.);
#68=PRESENTATION_STYLE_ASSIGNMENT((#137));
#69=EDGE_CURVE('Unnamed[1]',#138,#138,#139,.T.);
#70=PRESENTATION_STYLE_ASSIGNMENT((#140));
#71=PRESENTATION_STYLE_ASSIGNMENT((#141));
#72=MANIFOLD_SOLID_BREP('Unnamed[1]',#142);
#73=PRODUCT('Unnamed[1]','Unnamed[1]','PART-Unnamed[1]-DESC',(#143));
#74=PRODUCT_DEFINITION('NONE','NONE',#144,#2);
#75=AXIS2_PLACEMENT_3D('',#145,#146,#147);
#78=LENGTH_MEASURE_WITH_UNIT(LENGTH_MEASURE(1.0),#148);
#81=DIMENSIONAL_EXPONENTS(1.0,0.0,0.0,0.0,0.0,0.0,0.0);
#83=DIMENSIONAL_EXPONENTS(0.0,0.0,0.0,0.0,0.0,0.0,0.0);
#89=CURVE_STYLE('',#149,POSITIVE_LENGTH_MEASURE(1000.0),#150);
#90=VERTEX_POINT('',#151);
#91=CIRCLE('',#152,10.1287922699456);
#92=SURFACE_STYLE_USAGE(.BOTH.,#153);
#93=CURVE_STYLE('',#154,POSITIVE_LENGTH_MEASURE(1000.0),#155);
#94=FACE_BOUND('',#156,.T.);
#95=FACE_BOUND('',#157,.T.);
#96=CYLINDRICAL_SURFACE('',#158,17.65);
#97=SURFACE_STYLE_USAGE(.BOTH.,#159);
#98=CURVE_STYLE('',#160,POSITIVE_LENGTH_MEASURE(1000.0),#161);
#99=FACE_BOUND('',#162,.T.);
#100=FACE_BOUND('',#163,.T.);
#101=CONICAL_SURFACE('',#164,12.2456446090939,0.789394568316365);
#102=SURFACE_STYLE_USAGE(.BOTH.,#165);
#103=CURVE_STYLE('',#166,POSITIVE_LENGTH_MEASURE(1000.0),#167);
#104=FACE_OUTER_BOUND('',#168,.T.);
#105=PLANE('',#169);
#106=CURVE_STYLE('',#170,POSITIVE_LENGTH_MEASURE(1000.0),#171);
#107=VERTEX_POINT('',#172);
#108=CIRCLE('',#173,17.65);
#109=SURFACE_STYLE_USAGE(.BOTH.,#174);
#110=CURVE_STYLE('',#175,POSITIVE_LENGTH_MEASURE(1000.0),#176);
#111=FACE_BOUND('',#177,.T.);
#112=FACE_BOUND('',#178,.T.);
#113=CONICAL_SURFACE('',#179,17.575,0.785398163397437);
#114=SURFACE_STYLE_USAGE(.BOTH.,#180);
#115=CURVE_STYLE('',#181,POSITIVE_LENGTH_MEASURE(1000.0),#182);
#116=FACE_OUTER_BOUND('',#183,.T.);
#117=PLANE('',#184);
#118=CURVE_STYLE('',#185,POSITIVE_LENGTH_MEASURE(1000.0),#186);
#119=VERTEX_POINT('',#187);
#120=CIRCLE('',#188,17.5);
#121=CURVE_STYLE('',#189,POSITIVE_LENGTH_MEASURE(1000.0),#190);
#122=VERTEX_POINT('',#191);
#123=CIRCLE('',#192,14.3624969482421);
#124=SURFACE_STYLE_USAGE(.BOTH.,#193);
#125=CURVE_STYLE('',#194,POSITIVE_LENGTH_MEASURE(1000.0),#195);
#126=FACE_BOUND('',#196,.T.);
#127=FACE_BOUND('',#197,.T.);
#128=CYLINDRICAL_SURFACE('',#198,17.5);
#129=CURVE_STYLE('',#199,POSITIVE_LENGTH_MEASURE(1000.0),#200);
#130=VERTEX_POINT('',#201);
#131=CIRCLE('',#202,17.65);
#132=SURFACE_STYLE_USAGE(.BOTH.,#203);
#133=CURVE_STYLE('',#204,POSITIVE_LENGTH_MEASURE(1000.0),#205);
#134=FACE_BOUND('',#206,.T.);
#135=FACE_OUTER_BOUND('',#207,.T.);
#136=PLANE('',#208);
#137=CURVE_STYLE('',#209,POSITIVE_LENGTH_MEASURE(1000.0),#210);
#138=VERTEX_POINT('',#211);
#139=CIRCLE('',#212,17.5);
#140=SURFACE_STYLE_USAGE(.BOTH.,#213);
#141=CURVE_STYLE('',#214,POSITIVE_LENGTH_MEASURE(1000.0),#215);
#142=CLOSED_SHELL('',(#47,#41,#52,#62,#67,#44,#55));
#143=PRODUCT_CONTEXT('',#24,'mechanical');
#144=PRODUCT_DEFINITION_FORMATION_WITH_SPECIFIED_SOURCE(' ','NONE',#73,.NOT_KNOWN.);
#145=CARTESIAN_POINT('',(0.0,0.0,0.0));
#146=DIRECTION('',(0.0,0.0,1.0));
#147=DIRECTION('',(1.0,0.0,0.0));
#148= (NAMED_UNIT(#81)LENGTH_UNIT()SI_UNIT(.MILLI.,.METRE.));
#149=DRAUGHTING_PRE_DEFINED_CURVE_FONT('continuous');
#150=COLOUR_RGB('',0.0,1.0,0.0);
#151=CARTESIAN_POINT('',(2.57175827820943E-016,10.1287922699456,-4.19999999999998));
#152=AXIS2_PLACEMENT_3D('',#217,#218,#219);
#153=SURFACE_SIDE_STYLE('',(#220));
#154=DRAUGHTING_PRE_DEFINED_CURVE_FONT('continuous');
#155=COLOUR_RGB('',0.0,1.0,0.0);
#156=EDGE_LOOP('',(#221));
#157=EDGE_LOOP('',(#222));
#158=AXIS2_PLACEMENT_3D('',#223,#224,#225);
#159=SURFACE_SIDE_STYLE('',(#226));
#160=DRAUGHTING_PRE_DEFINED_CURVE_FONT('continuous');
#161=COLOUR_RGB('',0.0,1.0,0.0);
#162=EDGE_LOOP('',(#227));
#163=EDGE_LOOP('',(#228));
#164=AXIS2_PLACEMENT_3D('',#229,#230,#231);
#165=SURFACE_SIDE_STYLE('',(#232));
#166=DRAUGHTING_PRE_DEFINED_CURVE_FONT('continuous');
#167=COLOUR_RGB('',0.0,1.0,0.0);
#168=EDGE_LOOP('',(#233));
#169=AXIS2_PLACEMENT_3D('',#234,#235,#236);
#170=DRAUGHTING_PRE_DEFINED_CURVE_FONT('continuous');
#171=COLOUR_RGB('',0.0,1.0,0.0);
#172=CARTESIAN_POINT('',(-1.51636980929673E-015,17.65,24.7641983035841));
#173=AXIS2_PLACEMENT_3D('',#237,#238,#239);
#174=SURFACE_SIDE_STYLE('',(#240));
#175=DRAUGHTING_PRE_DEFINED_CURVE_FONT('continuous');
#176=COLOUR_RGB('',0.0,1.0,0.0);
#177=EDGE_LOOP('',(#241));
#178=EDGE_LOOP('',(#242));
#179=AXIS2_PLACEMENT_3D('',#243,#244,#245);
#180=SURFACE_SIDE_STYLE('',(#246));
#181=DRAUGHTING_PRE_DEFINED_CURVE_FONT('continuous');
#182=COLOUR_RGB('',0.0,1.0,0.0);
#183=EDGE_LOOP('',(#247));
#184=AXIS2_PLACEMENT_3D('',#248,#249,#250);
#185=DRAUGHTING_PRE_DEFINED_CURVE_FONT('continuous');
#186=COLOUR_RGB('',0.0,1.0,0.0);
#187=CARTESIAN_POINT('',(-1.50718495830312E-015,17.5,24.6141983035841));
#188=AXIS2_PLACEMENT_3D('',#251,#252,#253);
#189=DRAUGHTING_PRE_DEFINED_CURVE_FONT('continuous');
#190=COLOUR_RGB('',0.0,1.0,0.0);
#191=CARTESIAN_POINT('',(-1.97215226305253E-031,14.3624969482421,1.77635683940025E-015));
#192=AXIS2_PLACEMENT_3D('',#254,#255,#256);
#193=SURFACE_SIDE_STYLE('',(#257));
#194=DRAUGHTING_PRE_DEFINED_CURVE_FONT('continuous');
#195=COLOUR_RGB('',0.0,1.0,0.0);
#196=EDGE_LOOP('',(#258));
#197=EDGE_LOOP('',(#259));
#198=AXIS2_PLACEMENT_3D('',#260,#261,#262);
#199=DRAUGHTING_PRE_DEFINED_CURVE_FONT('continuous');
#200=COLOUR_RGB('',0.0,1.0,0.0);
#201=CARTESIAN_POINT('',(-1.63490254253036E-015,17.65,26.6999847412109));
#202=AXIS2_PLACEMENT_3D('',#263,#264,#265);
#203=SURFACE_SIDE_STYLE('',(#266));
#204=DRAUGHTING_PRE_DEFINED_CURVE_FONT('continuous');
#205=COLOUR_RGB('',0.0,1.0,0.0);
#206=EDGE_LOOP('',(#267));
#207=EDGE_LOOP('',(#268));
#208=AXIS2_PLACEMENT_3D('',#269,#270,#271);
#209=DRAUGHTING_PRE_DEFINED_CURVE_FONT('continuous');
#210=COLOUR_RGB('',0.0,1.0,0.0);
#211=CARTESIAN_POINT('',(-1.97215226305253E-031,17.5,1.77635683940025E-015));
#212=AXIS2_PLACEMENT_3D('',#272,#273,#274);
#213=SURFACE_SIDE_STYLE('',(#275));
#214=DRAUGHTING_PRE_DEFINED_CURVE_FONT('continuous');
#215=COLOUR_RGB('',0.0,1.0,0.0);
#217=CARTESIAN_POINT('',(2.57175827820943E-016,5.14351655641886E-016,-4.19999999999999));
#218=DIRECTION('',(6.12323399573677E-017,1.22464679914735E-016,-1.0));
#219=DIRECTION('',(-1.23259516440783E-032,1.0,1.22464679914735E-016));
#220=SURFACE_STYLE_FILL_AREA(#276);
#221=ORIENTED_EDGE('',*,*,#49,.F.);
#222=ORIENTED_EDGE('',*,*,#64,.T.);
#223=CARTESIAN_POINT('',(-1.57563617591354E-015,-3.15127235182709E-015,25.7320915223975));
#224=DIRECTION('',(6.12323399573677E-017,1.22464679914735E-016,-1.0));
#225=DIRECTION('',(-1.23259516440783E-032,1.0,1.22464679914735E-016));
#226=SURFACE_STYLE_FILL_AREA(#277);
#227=ORIENTED_EDGE('',*,*,#38,.F.);
#228=ORIENTED_EDGE('',*,*,#59,.T.);
#229=CARTESIAN_POINT('',(1.28587913910472E-016,2.57175827820943E-016,-2.09999999999999));
#230=DIRECTION('',(-6.12323399573677E-017,-1.22464679914735E-016,1.0));
#231=DIRECTION('',(-1.23259516440783E-032,1.0,1.22464679914735E-016));
#232=SURFACE_STYLE_FILL_AREA(#278);
#233=ORIENTED_EDGE('',*,*,#64,.F.);
#234=CARTESIAN_POINT('',(-1.63490254253036E-015,8.825,26.6999847412109));
#235=DIRECTION('',(-6.12323399573677E-017,-1.22464679914735E-016,1.0));
#236=DIRECTION('',(1.23259516440783E-032,-1.0,-1.22464679914735E-016));
#237=CARTESIAN_POINT('',(-1.51636980929673E-015,-3.03273961859346E-015,24.7641983035841));
#238=DIRECTION('',(6.12323399573677E-017,1.22464679914735E-016,-1.0));
#239=DIRECTION('',(-1.23259516440783E-032,1.0,1.22464679914735E-016));
#240=SURFACE_STYLE_FILL_AREA(#279);
#241=ORIENTED_EDGE('',*,*,#57,.F.);
#242=ORIENTED_EDGE('',*,*,#49,.T.);
#243=CARTESIAN_POINT('',(-1.51177738379993E-015,-3.02355476759985E-015,24.6891983035841));
#244=DIRECTION('',(-6.12323399573677E-017,-1.22464679914735E-016,1.0));
#245=DIRECTION('',(-1.23259516440783E-032,1.0,1.22464679914735E-016));
#246=SURFACE_STYLE_FILL_AREA(#280);
#247=ORIENTED_EDGE('',*,*,#38,.T.);
#248=CARTESIAN_POINT('',(2.57175827820943E-016,5.06439613497281,-4.19999999999998));
#249=DIRECTION('',(6.12323399573677E-017,1.22464679914735E-016,-1.0));
#250=DIRECTION('',(-1.23259516440783E-032,1.0,1.22464679914735E-016));
#251=CARTESIAN_POINT('',(-1.50718495830312E-015,-3.01436991660625E-015,24.6141983035841));
#252=DIRECTION('',(6.12323399573677E-017,1.22464679914735E-016,-1.0));
#253=DIRECTION('',(-1.23259516440783E-032,1.0,1.22464679914735E-016));
#254=CARTESIAN_POINT('',(0.0,0.0,0.0));
#255=DIRECTION('',(6.12323399573677E-017,1.22464679914735E-016,-1.0));
#256=DIRECTION('',(-1.23259516440783E-032,1.0,1.22464679914735E-016));
#257=SURFACE_STYLE_FILL_AREA(#281);
#258=ORIENTED_EDGE('',*,*,#69,.F.);
#259=ORIENTED_EDGE('',*,*,#57,.T.);
#260=CARTESIAN_POINT('',(-7.53592479151562E-016,-1.50718495830312E-015,12.3070991517921));
#261=DIRECTION('',(6.12323399573677E-017,1.22464679914735E-016,-1.0));
#262=DIRECTION('',(-1.23259516440783E-032,1.0,1.22464679914735E-016));
#263=CARTESIAN_POINT('',(-1.63490254253036E-015,-3.26980508506071E-015,26.6999847412109));
#264=DIRECTION('',(6.12323399573677E-017,1.22464679914735E-016,-1.0));
#265=DIRECTION('',(-1.23259516440783E-032,1.0,1.22464679914735E-016));
#266=SURFACE_STYLE_FILL_AREA(#282);
#267=ORIENTED_EDGE('',*,*,#59,.F.);
#268=ORIENTED_EDGE('',*,*,#69,.T.);
#269=CARTESIAN_POINT('',(-1.97215226305253E-031,15.9312484741211,1.77635683940025E-015));
#270=DIRECTION('',(6.12323399573677E-017,1.22464679914735E-016,-1.0));
#271=DIRECTION('',(-1.23259516440783E-032,1.0,1.22464679914735E-016));
#272=CARTESIAN_POINT('',(0.0,0.0,0.0));
#273=DIRECTION('',(6.12323399573677E-017,1.22464679914735E-016,-1.0));
#274=DIRECTION('',(-1.23259516440783E-032,1.0,1.22464679914735E-016));
#275=SURFACE_STYLE_FILL_AREA(#283);
#276=FILL_AREA_STYLE('',(#284));
#277=FILL_AREA_STYLE('',(#285));
#278=FILL_AREA_STYLE('',(#286));
#279=FILL_AREA_STYLE('',(#287));
#280=FILL_AREA_STYLE('',(#288));
#281=FILL_AREA_STYLE('',(#289));
#282=FILL_AREA_STYLE('',(#290));
#283=FILL_AREA_STYLE('',(#291));
#284=FILL_AREA_STYLE_COLOUR('',#292);
#285=FILL_AREA_STYLE_COLOUR('',#293);
#286=FILL_AREA_STYLE_COLOUR('',#294);
#287=FILL_AREA_STYLE_COLOUR('',#295);
#288=FILL_AREA_STYLE_COLOUR('',#296);
#289=FILL_AREA_STYLE_COLOUR('',#297);
#290=FILL_AREA_STYLE_COLOUR('',#298);
#291=FILL_AREA_STYLE_COLOUR('',#299);
#292=COLOUR_RGB('',0.0,1.0,0.0);
#293=COLOUR_RGB('',0.0,1.0,0.0);
#294=COLOUR_RGB('',0.0,1.0,0.0);
#295=COLOUR_RGB('',0.0,1.0,0.0);
#296=COLOUR_RGB('',0.0,1.0,0.0);
#297=COLOUR_RGB('',0.0,1.0,0.0);
#298=COLOUR_RGB('',0.0,1.0,0.0);
#299=COLOUR_RGB('',0.0,1.0,0.0);
ENDSEC;
END-ISO-10303-21;
